Iron Maiden - That Girl

Iron Maiden - That Girl

Iron Maiden



Title: That Girl
Album: Somewhere In Time B-Side
Artist: Iron Maiden
Author: 

Track 1: Dist. Guitar 1
E|---------|---------|---------|---------|---------|--------------------------|---------|
B|---------|---------|---------|---------|---------|--------------------7-----|-10------|
G|-%-------|-%-------|-%-------|-%-------|-%-------|-%------4-----7-----------|---------|
D|-%-------|-%-------|-%-------|-%-------|-%-------|-%------------------------|---------|
A|---------|---------|---------|---------|---------|--------------------------|---------|
E|---------|---------|---------|---------|---------|--------------------------|---------|

E|--------------------------|---------|---------------------------------------------|
B|--------10----7-----------|---------|-----------------------------7-------9---10--|
G|-%------------------7-----|-4-------|-%-----%---------%-------7-------%-----------|
D|-%------------------------|---------|-%-----%-----9---%---9-----------%-----------|
A|--------------------------|---------|---------------------------------------------|
E|--------------------------|---------|---------------------------------------------|

E|--------------------|---------------------------|---------------|---------------------|
B|-9------9------5----|-7------7----------5---7---|-5------5------|-8------7------5-----|
G|--------------------|--------------%------------|---------------|-9------7------6-----|
D|--------------------|--------------%------------|---------------|---------------------|
A|--------------------|---------------------------|---------------|---------------------|
E|--------------------|---------------------------|---------------|---------------------|

E|-------------------------------------|---------------------|-------------------------------------|
B|-5---------------5-------------------|-8------7------5-----|-5---------------5-------------------|
G|-6----7----7-----6----%----7----%----|-9------7------6-----|-6----7----7-----6----%----7----%----|
D|------9----9----------%----9----%----|---------------------|------9----9----------%----9----%----|
A|-------------------------------------|---------------------|-------------------------------------|
E|-------------------------------------|---------------------|-------------------------------------|

E|---------------------|-------------------------------------|----------------------------|
B|-8------7------5-----|-5---------------5-------------------|-5------5-----------3---5---|
G|-9------7------6-----|-6----7----7-----6----%----7----%----|-6------6------%----4---6---|
D|---------------------|------9----9----------%----9----%----|---------------%------------|
A|---------------------|-------------------------------------|----------------------------|
E|---------------------|-------------------------------------|----------------------------|

E|---------|---------------------|-------------------------------------|---------------------|
B|-3-------|-8------7------5-----|-5---------------5-------------------|-8------7------5-----|
G|-4-------|-9------7------6-----|-6----7----7-----6----%----7----%----|-9------7------6-----|
D|---------|---------------------|------9----9----------%----9----%----|---------------------|
A|---------|---------------------|-------------------------------------|---------------------|
E|---------|---------------------|-------------------------------------|---------------------|

E|-------------------------------------|---------------------|-------------------------------------|
B|-5---------------5-------------------|-8------7------5-----|-5---------------5-------------------|
G|-6----7----7-----6----%----7----%----|-9------7------6-----|-6----7----7-----6----%----7----%----|
D|------9----9----------%----9----%----|---------------------|------9----9----------%----9----%----|
A|-------------------------------------|---------------------|-------------------------------------|
E|-------------------------------------|---------------------|-------------------------------------|

E|----------------------------|---------|---------|-------------------------------2-----|
B|-5------5-----------3---5---|-3-------|---------|-------3-----3-----------3-----------|
G|-6------6------%----4---6---|-4-------|-%-------|-4-----------------4-----------------|
D|---------------%------------|---------|-%-------|-------------------------------------|
A|----------------------------|---------|---------|-------------------------------------|
E|----------------------------|---------|---------|-------------------------------------|

E|-5-------|---------|---------|---------|---------|---------|---------|--------------------2-----|
B|---------|---------|---------|---------|---------|---------|---------|--------------3-----------|
G|---------|-%-------|-%-------|-%-------|-%-------|-%-------|-%-------|-%------4-----------------|
D|---------|-%-------|-%-------|-%-------|-%-------|-%-------|-%-------|-%------------------------|
A|---------|---------|---------|---------|---------|---------|---------|--------------------------|
E|---------|---------|---------|---------|---------|---------|---------|--------------------------|

E|-5-------|--------5-----2-----------|---------|---------|---------|---------|---------|
B|---------|--------------------3-----|---------|---------|---------|---------|---------|
G|---------|-%------------------------|-4-------|-%-------|-%-------|-%-------|---------|
D|---------|-%------------------------|---------|-%-------|-%-------|-%-------|-5-------|
A|---------|--------------------------|---------|---------|---------|---------|-5-------|
E|---------|--------------------------|---------|---------|---------|---------|-3-------|

E|---------|---------|---------------------------------|---------|---------|---------|
B|---------|---------|---------------------------------|---------|---------|---------|
G|---------|-2-------|-X----4----4----2----4-----2-----|---------|---------|---------|
D|-2-------|-2-------|-X----4----4----2----4-----2-----|-5-------|-2-------|-4-------|
A|-2-------|-0-------|-X----2----2----0----2-----0-----|-5-------|-2-------|-4-------|
E|-0-------|---------|---------------------------------|-3-------|-0-------|-2-------|

E|---------|-----------------------------------------------------|-----------------------------------------------------|
B|---------|-----------------------------------------------------|-----------------------------------------------------|
G|---------|-----------------------------------------------------|-----------------------------------------------------|
D|-5-------|-2------------2------------2------------2------------|-4------------4------------4------------4------------|
A|-5-------|-2------------2------------2------------2------------|-4------------4------------4------------4------------|
E|-3-------|-0----0---0---0----0---0---0----0---0---0----0---0---|-2----2---2---2----2---2---2----2---2---2----2---2---|

E|-----------------------------------------------------|---------------------------------------|
B|-----------------------------------------------------|---------------------------------------|
G|-----------------------------------------------------|-4------------4------------4-----2-----|
D|-5------------5------------5------------5------------|-4------------4------------4-----2-----|
A|-5------------5------------5------------5------------|-2----2---2---2----2---2---2-----0-----|
E|-3----3---3---3----3---3---3----3---3---3----3---3---|---------------------------------------|

E|-----------------------------------------------------|-----------------------------------------------------|
B|-----------------------------------------------------|-----------------------------------------------------|
G|-----------------------------------------------------|-----------------------------------------------------|
D|-5------------5------------5------------5------------|-2------------2------------2------------2------------|
A|-5------------5------------5------------5------------|-2------------2------------2------------2------------|
E|-3----3---3---3----3---3---3----3---3---3----3---3---|-0----0---0---0----0---0---0----0---0---0----0---0---|

E|---------|---------|---------|-------------------------------2-----|-5-------|---------|
B|---------|---------|---------|-------3-----3-----------3-----------|---------|---------|
G|-2-------|---------|-%-------|-4-----------------4-----------------|---------|-%-------|
D|-2-------|---------|-%-------|-------------------------------------|---------|-%-------|
A|-0-------|-0-------|---------|-------------------------------------|---------|---------|
E|---------|---------|---------|-------------------------------------|---------|---------|

E|---------|---------|---------|---------|---------|--------------------2-----|-5-------|
B|---------|---------|---------|---------|---------|--------------3-----------|---------|
G|-%-------|-%-------|-%-------|-%-------|-%-------|-%------4-----------------|---------|
D|-%-------|-%-------|-%-------|-%-------|-%-------|-%------------------------|---------|
A|---------|---------|---------|---------|---------|--------------------------|---------|
E|---------|---------|---------|---------|---------|--------------------------|---------|

E|--------5-----2-----------|---------|---------|---------|---------|---------|---------|
B|--------------------3-----|---------|---------|---------|---------|---------|---------|
G|-%------------------------|-4-------|-%-------|-%-------|-%-------|---------|---------|
D|-%------------------------|---------|-%-------|-%-------|-%-------|-5-------|-2-------|
A|--------------------------|---------|---------|---------|---------|-5-------|-2-------|
E|--------------------------|---------|---------|---------|---------|-3-------|-0-------|

E|---------|---------------------------------|---------|---------|---------|---------|
B|---------|---------------------------------|---------|---------|---------|---------|
G|-2-------|-X----4----4----2----4-----2-----|---------|---------|---------|---------|
D|-2-------|-X----4----4----2----4-----2-----|-5-------|-2-------|-4-------|-5-------|
A|-0-------|-X----2----2----0----2-----0-----|-5-------|-2-------|-4-------|-5-------|
E|---------|---------------------------------|-3-------|-0-------|-2-------|-3-------|

E|-----------------------------------------------------|-----------------------------------------------------|
B|-----------------------------------------------------|-----------------------------------------------------|
G|-----------------------------------------------------|-----------------------------------------------------|
D|-2------------2------------2------------2------------|-4------------4------------4------------4------------|
A|-2------------2------------2------------2------------|-4------------4------------4------------4------------|
E|-0----0---0---0----0---0---0----0---0---0----0---0---|-2----2---2---2----2---2---2----2---2---2----2---2---|

E|-----------------------------------------------------|---------------------------------------|
B|-----------------------------------------------------|---------------------------------------|
G|-----------------------------------------------------|-4------------4------------4-----2-----|
D|-5------------5------------5------------5------------|-4------------4------------4-----2-----|
A|-5------------5------------5------------5------------|-2----2---2---2----2---2---2-----0-----|
E|-3----3---3---3----3---3---3----3---3---3----3---3---|---------------------------------------|

E|-----------------------------------------------------|-----------------------------------------------------|
B|-----------------------------------------------------|-----------------------------------------------------|
G|-----------------------------------------------------|-----------------------------------------------------|
D|-5------------5------------5------------5------------|-2------------2------------2------------2------------|
A|-5------------5------------5------------5------------|-2------------2------------2------------2------------|
E|-3----3---3---3----3---3---3----3---3---3----3---3---|-0----0---0---0----0---0---0----0---0---0----0---0---|

E|---------|---------|---------------------|-------------------------------------|---------------------|
B|---------|---------|-8------7------5-----|-5---------------5-------------------|-8------7------5-----|
G|-2-------|---------|-9------7------6-----|-6----7----7-----6----%----7----%----|-9------7------6-----|
D|-2-------|---------|---------------------|------9----9----------%----9----%----|---------------------|
A|-0-------|-0-------|---------------------|-------------------------------------|---------------------|
E|---------|---------|---------------------|-------------------------------------|---------------------|

E|-------------------------------------|---------------------|-------------------------------------|
B|-5---------------5-------------------|-8------7------5-----|-5---------------5-------------------|
G|-6----7----7-----6----%----7----%----|-9------7------6-----|-6----7----7-----6----%----7----%----|
D|------9----9----------%----9----%----|---------------------|------9----9----------%----9----%----|
A|-------------------------------------|---------------------|-------------------------------------|
E|-------------------------------------|---------------------|-------------------------------------|

E|----------------------------|---------|---------------------|-------------------------------------|
B|-5------5-----------3---5---|-3-------|-8------7------5-----|-5---------------5-------------------|
G|-6------6------%----4---6---|-4-------|-9------7------6-----|-6----7----7-----6----%----7----%----|
D|---------------%------------|---------|---------------------|------9----9----------%----9----%----|
A|----------------------------|---------|---------------------|-------------------------------------|
E|----------------------------|---------|---------------------|-------------------------------------|

E|---------------------|-------------------------------------|---------------------|
B|-8------7------5-----|-5---------------5-------------------|-8------7------5-----|
G|-9------7------6-----|-6----7----7-----6----%----7----%----|-9------7------6-----|
D|---------------------|------9----9----------%----9----%----|---------------------|
A|---------------------|-------------------------------------|---------------------|
E|---------------------|-------------------------------------|---------------------|

E|-------------------------------------|----------------------------|---------|--------------------------------------------|
B|-5---------------5-------------------|-5------5-----------3---5---|-3-------|-8----7---8---7---5----7----10----10---10---|
G|-6----7----7-----6----%----7----%----|-6------6------%----4---6---|-4-------|--------------------------------------------|
D|------9----9----------%----9----%----|---------------%------------|---------|--------------------------------------------|
A|-------------------------------------|----------------------------|---------|--------------------------------------------|
E|-------------------------------------|----------------------------|---------|--------------------------------------------|

E|-----------------------------------------------------------------|-------------------------------------------------------------------------------------------------|
B|-10----7----8----7---8---7---8---7---8---7--8--7--8--7--8--7--8--|-5---7---5---7---5---7---3--5--3--5--3--5--3--5--2---3---2---3---2---3---0---2---0---2---0---2---|
G|-----------------------------------------------------------------|-------------------------------------------------------------------------------------------------|
D|-----------------------------------------------------------------|-------------------------------------------------------------------------------------------------|
A|-----------------------------------------------------------------|-------------------------------------------------------------------------------------------------|
E|-----------------------------------------------------------------|-------------------------------------------------------------------------------------------------|

E|-------------------------------------|--------------------------------------------|
B|-0-------------------8----7----------|-------15---14---15---14--15--14--12---14---|
G|-----------6----7--------------9-----|-%------------------------------------------|
D|------9------------------------------|-%------------------------------------------|
A|-------------------------------------|--------------------------------------------|
E|-------------------------------------|--------------------------------------------|

E|--------------------------------------12---14---|-------------------------------------------14--15--14----------14--15--17--15--14------|
B|-11---12---14--15--14--12---14---15-------------|-12--14--12--11--------15--17--15----------------------17--15----------------------17--|
G|------------------------------------------------|--------------------18-------------18--16----------------------------------------------|
D|------------------------------------------------|-----------------18--------------------------------------------------------------------|
A|------------------------------------------------|---------------------------------------------------------------------------------------|
E|------------------------------------------------|---------------------------------------------------------------------------------------|

E|-20------|-----------------------------------------------------|-----------------------------------------------------|
B|---------|-----------------------------------------------------|-----------------------------------------------------|
G|---------|-----------------------------------------------------|-----------------------------------------------------|
D|---------|-2------------2------------2------------2------------|-4------------4------------4------------4------------|
A|---------|-2------------2------------2------------2------------|-4------------4------------4------------4------------|
E|---------|-0----0---0---0----0---0---0----0---0---0----0---0---|-2----2---2---2----2---2---2----2---2---2----2---2---|

E|-----------------------------------------------------|---------------------------------------|
B|-----------------------------------------------------|---------------------------------------|
G|-----------------------------------------------------|-4------------4------------4-----2-----|
D|-5------------5------------5------------5------------|-4------------4------------4-----2-----|
A|-5------------5------------5------------5------------|-2----2---2---2----2---2---2-----0-----|
E|-3----3---3---3----3---3---3----3---3---3----3---3---|---------------------------------------|

E|-----------------------------------------------------|-----------------------------------------------------|
B|-----------------------------------------------------|-----------------------------------------------------|
G|-----------------------------------------------------|-----------------------------------------------------|
D|-5------------5------------5------------5------------|-2------------2------------2------------2------------|
A|-5------------5------------5------------5------------|-2------------2------------2------------2------------|
E|-3----3---3---3----3---3---3----3---3---3----3---3---|-0----0---0---0----0---0---0----0---0---0----0---0---|

E|-----------------------------------------------------|-----------------------------------------------------|
B|-----------------------------------------------------|-----------------------------------------------------|
G|-----------------------------------------------------|-----------------------------------------------------|
D|-4------------4------------4------------4------------|-5------------5------------5------------5------------|
A|-4------------4------------4------------4------------|-5------------5------------5------------5------------|
E|-2----2---2---2----2---2---2----2---2---2----2---2---|-3----3---3---3----3---3---3----3---3---3----3---3---|

E|-----------------------------------------------------|-----------------------------------------------------|
B|-----------------------------------------------------|-----------------------------------------------------|
G|-----------------------------------------------------|-----------------------------------------------------|
D|-2------------2------------2------------2------------|-4------------4------------4------------4------------|
A|-2------------2------------2------------2------------|-4------------4------------4------------4------------|
E|-0----0---0---0----0---0---0----0---0---0----0---0---|-2----2---2---2----2---2---2----2---2---2----2---2---|

E|-----------------------------------------------------|---------------------------------------|
B|-----------------------------------------------------|---------------------------------------|
G|-----------------------------------------------------|-4------------4------------4-----2-----|
D|-5------------5------------5------------5------------|-4------------4------------4-----2-----|
A|-5------------5------------5------------5------------|-2----2---2---2----2---2---2-----0-----|
E|-3----3---3---3----3---3---3----3---3---3----3---3---|---------------------------------------|

E|-----------------------------------------------------|-----------------------------------------------------|
B|-----------------------------------------------------|-----------------------------------------------------|
G|-----------------------------------------------------|-----------------------------------------------------|
D|-5------------5------------5------------5------------|-2------------2------------2------------2------------|
A|-5------------5------------5------------5------------|-2------------2------------2------------2------------|
E|-3----3---3---3----3---3---3----3---3---3----3---3---|-0----0---0---0----0---0---0----0---0---0----0---0---|

E|---------|---------|---------------------|-------------------------------------|---------------------|
B|---------|---------|-8------7------5-----|-5---------------5-------------------|-8------7------5-----|
G|-2-------|---------|-9------7------6-----|-6----7----7-----6----%----7----%----|-9------7------6-----|
D|-2-------|---------|---------------------|------9----9----------%----9----%----|---------------------|
A|-0-------|-0-------|---------------------|-------------------------------------|---------------------|
E|---------|---------|---------------------|-------------------------------------|---------------------|

E|-------------------------------------|---------------------|-------------------------------------|
B|-5---------------5-------------------|-8------7------5-----|-5---------------5-------------------|
G|-6----7----7-----6----%----7----%----|-9------7------6-----|-6----7----7-----6----%----7----%----|
D|------9----9----------%----9----%----|---------------------|------9----9----------%----9----%----|
A|-------------------------------------|---------------------|-------------------------------------|
E|-------------------------------------|---------------------|-------------------------------------|

E|----------------------------|---------|---------------------|-------------------------------------|
B|-5------5-----------3---5---|-3-------|-8------7------5-----|-5---------------5-------------------|
G|-6------6------%----4---6---|-4-------|-9------7------6-----|-6----7----7-----6----%----7----%----|
D|---------------%------------|---------|---------------------|------9----9----------%----9----%----|
A|----------------------------|---------|---------------------|-------------------------------------|
E|----------------------------|---------|---------------------|-------------------------------------|

E|---------------------|-------------------------------------|---------------------|
B|-8------7------5-----|-5---------------5-------------------|-8------7------5-----|
G|-9------7------6-----|-6----7----7-----6----%----7----%----|-9------7------6-----|
D|---------------------|------9----9----------%----9----%----|---------------------|
A|---------------------|-------------------------------------|---------------------|
E|---------------------|-------------------------------------|---------------------|

E|-------------------------------------|----------------------------|---------|--------------------------|
B|-5---------------5-------------------|-5------5-----------3---5---|-3-------|--------------------7-----|
G|-6----7----7-----6----%----7----%----|-6------6------%----4---6---|-4-------|-%------------7-----------|
D|------9----9----------%----9----%----|---------------%------------|---------|-%------9-----------------|
A|-------------------------------------|----------------------------|---------|--------------------------|
E|-------------------------------------|----------------------------|---------|--------------------------|

E|---------|------------------------------|----------------------------------------------------|
B|-10------|-10-----10----7---------------|----------------------------------------------------|
G|---------|--------------------9----7----|----------------------------------------------------|
D|---------|------------------------------|-9---------7----9----7---------7--------------------|
A|---------|------------------------------|------9-------------------9---------9----9----9-----|
E|---------|------------------------------|----------------------------------------------------|

E|-------------------------------------------------------------|------------------------------------------------7---|
B|-------------------------------------------------------------|--------------------------------------------7-------|
G|----------------------------------------------7--------------|------7----9----9----9---7---9-----9----7-----------|
D|-------------------------------7---------7---------9----9----|-9--------------------------------------------------|
A|-7---------7----9----7----9---------9------------------------|----------------------------------------------------|
E|------10-----------------------------------------------------|----------------------------------------------------|

E|-9-----9-----9-----9---7-------7---|-----------------------------|-14---15---15---15--------14--15--14----------------|
B|---------------------------10------|-10----10---------------15---|-----------------------15-------------15--15--------|
G|-----------------------------------|--------------%----16--------|--------------------16-------------------------16---|
D|-----------------------------------|--------------%--------------|----------------------------------------------------|
A|-----------------------------------|-----------------------------|----------------------------------------------------|
E|-----------------------------------|-----------------------------|----------------------------------------------------|

E|---------------------------------|------------------------------------------|---------------------------|
B|------------14---15---17---17----|-15---------------------------------------|---------------------------|
G|-16----16------------------------|-----16--16---16----14--11--12--11--11----|-11----11------------------|
D|---------------------------------|------------------------------------------|------------14-------------|
A|---------------------------------|------------------------------------------|----------------14--14-----|
E|---------------------------------|------------------------------------------|---------------------------|

E|--------------------------|-14----15----17----15----14----------|------------------------------------------|
B|--------------15----17----|-------------------------------17----|-17----17---17--15------------------------|
G|-16-----16----------------|-------------------------------------|--------------------16----14--11--12--11--|
D|--------------------------|-------------------------------------|------------------------------------------|
A|--------------------------|-------------------------------------|------------------------------------------|
E|--------------------------|-------------------------------------|------------------------------------------|

E|--------------------------------|
B|--------------------------------|
G|-9-----9----9---7---------%-----|
D|--------------------9-----%-----|
A|--------------------------------|
E|--------------------------------|
Iron Maiden - That Girl
Iron Maiden - That Girl.gp3