Iron Maiden - That girl solo

Iron Maiden



Title: That girl solo
Album: Wasted years - Stranger in a strange land
Artist: Iron Maiden
Author: Steve Harris

Track 1: Dave
E|------------------------------------|-----------------------------------------------------------------------------------------|
B|-8-----7---8---7----8----10---10----|-8--10-8--10-7---8---7--8--7--8--7--8--7--8--7--8--7--8-----7-----7----------------------|
G|------------------------------------|---------------------------------------------------------9-----9-----9--7--9--7--9---7---|
D|------------------------------------|-----------------------------------------------------------------------------------------|
A|------------------------------------|-----------------------------------------------------------------------------------------|
E|------------------------------------|-----------------------------------------------------------------------------------------|

E|------------------------------------------------------------------------------|---------------------------------|
B|-----------------------------------------------------------------7---8---7----|-------------12---15---14---15---|
G|-6--7--6--7--6--7--6--7--6--7----------------------------7---9----------------|-9-----9-------------------------|
D|-------------------------------7--9--7--9--7--9--7---9------------------------|---------------------------------|
A|------------------------------------------------------------------------------|---------------------------------|
E|------------------------------------------------------------------------------|---------------------------------|

E|---------------------------------------------------------------------------------|
B|-14-15-14------------12-14-12-14-14--14--14-15-14--------14--12-14-12-14-14--14--|
G|----------15-15--15-------------------------------15-15--15----------------------|
D|---------------------------------------------------------------------------------|
A|---------------------------------------------------------------------------------|
E|---------------------------------------------------------------------------------|

E|-------------------------------------------------------------------------------------------------|
B|----------------------------------------------------------14-15-14-15-14-15-14-15-14-15-14-15-14-|
G|-------------------------16-14-16-14-16-14-16-14-16-14-16----------------------------------------|
D|-14-16-14-16-14-16-14-16-------------------------------------------------------------------------|
A|-------------------------------------------------------------------------------------------------|
E|-------------------------------------------------------------------------------------------------|

E|-------------------------------------------14-15-14-15-14-15-14-15-14-15-14-15-14-15-14-15-14-15-|
B|-15-17-15-17-15-17-15-17-15-17-15-17-15-17-------------------------------------------------------|
G|-------------------------------------------------------------------------------------------------|
D|-------------------------------------------------------------------------------------------------|
A|-------------------------------------------------------------------------------------------------|
E|-------------------------------------------------------------------------------------------------|

E|-17------|-----------------------------------------------------|-----------------------------------------------------|
B|---------|-----------------------------------------------------|-----------------------------------------------------|
G|---------|-----------------------------------------------------|-----------------------------------------------------|
D|---------|-9----9---9---9----9---9---9----9---9---9----9---9---|-----------------------------------------------------|
A|---------|-7----7---7---7----7---7---7----7---7---7----7---7---|-4----4---4---4----4---4---4----4---4---4----4---4---|
E|---------|-0----0---0---0----0---0---0----0---0---0----0---0---|-2----2---2---2----2---2---2----2---2---2----2---2---|

E|-----------------------------------------------------|--------------------|-----------------------------------------------------|
B|-----------------------------------------------------|--------------------|-----------------------------------------------------|
G|-----------------------------------------------------|--------------------|-----------------------------------------------------|
D|-----------------------------------------------------|-9------9-----7-----|-9----9---9---9----9---9---9----9---9---9----9---9---|
A|-5----5---5---5----5---5---5----5---5---5----5---5---|-9------9-----7-----|-7----7---7---7----7---7---7----7---7---7----7---7---|
E|-3----3---3---3----3---3---3----3---3---3----3---3---|-7------7-----5-----|-0----0---0---0----0---0---0----0---0---0----0---0---|

E|-----------------------------------------------------|-----------------------------------------------------|
B|-----------------------------------------------------|-----------------------------------------------------|
G|-----------------------------------------------------|-----------------------------------------------------|
D|-----------------------------------------------------|-----------------------------------------------------|
A|-4----4---4---4----4---4---4----4---4---4----4---4---|-5----5---5---5----5---5---5----5---5---5----5---5---|
E|-2----2---2---2----2---2---2----2---2---2----2---2---|-3----3---3---3----3---3---3----3---3---3----3---3---|

E|--------------------|-----------------------------------------------------|-----------------------------------------------------|
B|--------------------|-----------------------------------------------------|-----------------------------------------------------|
G|--------------------|-----------------------------------------------------|-----------------------------------------------------|
D|-9------9-----7-----|-9----9---9---9----9---9---9----9---9---9----9---9---|-----------------------------------------------------|
A|-9------9-----7-----|-7----7---7---7----7---7---7----7---7---7----7---7---|-4----4---4---4----4---4---4----4---4---4----4---4---|
E|-7------7-----5-----|-0----0---0---0----0---0---0----0---0---0----0---0---|-2----2---2---2----2---2---2----2---2---2----2---2---|

E|-----------------------------------------------------|--------------------|
B|-----------------------------------------------------|--------------------|
G|-----------------------------------------------------|--------------------|
D|-----------------------------------------------------|-9------9-----7-----|
A|-5----5---5---5----5---5---5----5---5---5----5---5---|-9------9-----7-----|
E|-3----3---3---3----3---3---3----3---3---3----3---3---|-7------7-----5-----|
Iron Maiden - That girl solo
Iron Maiden - That girl solo.gp3