Iron Maiden - The Aftermath

Iron Maiden



Title: The Aftermath
Album: The X Factor
Artist: Iron Maiden
Author: Iron Maiden

Track 1: Rhythm Guitar
E|-----------------------------------------------------------------|--------------------------------------------------------------|
B|-----------------0-------------------------------3---------------|-----------------0--------------------------------------------|
G|---------2---------------2---------------2---------------2-------|---------2---------------2---------------0-----------0--------|
D|-----2-------2-------2-------2-------3-------3-------3-------3---|-----2-------2-------2-------2-------0-----------0------------|
A|-0-------------------------------0-------------------------------|-0-------------------------------3-----------2----------------|
E|-----------------------------------------------------------------|---------------------------------------------------------3----|

E|-----------------------------------------------------------------|--------------------------------------------------------------|
B|-----------------0-------------------------------3---------------|-----------------0--------------------------------------------|
G|---------2---------------2---------------2---------------2-------|---------2---------------2---------------0-----------0--------|
D|-----2-------2-------2-------2-------3-------3-------3-------3---|-----2-------2-------2-------2-------0-----------0------------|
A|-0-------------------------------0-------------------------------|-0-------------------------------3-----------2----------------|
E|-----------------------------------------------------------------|---------------------------------------------------------3----|

E|-----------------------------------------------------------------|--------------------------------------------------------------|
B|-----------------0-------------------------------3---------------|-----------------0--------------------------------------------|
G|---------2---------------2---------------2---------------2-------|---------2---------------2---------------0-----------0--------|
D|-----2-------2-------2-------2-------3-------3-------3-------3---|-----2-------2-------2-------2-------0-----------0------------|
A|-0-------------------------------0-------------------------------|-0-------------------------------3-----------2----------------|
E|-----------------------------------------------------------------|---------------------------------------------------------3----|

E|---------|---------|---------|---------|---------|---------|---------|---------|---------|
B|---------|---------|---------|---------|---------|---------|---------|---------|---------|
G|-%-------|-%-------|-%-------|-%-------|-%-------|-%-------|-%-------|-%-------|-%-------|
D|-%-------|-%-------|-%-------|-%-------|-%-------|-%-------|-%-------|-%-------|-%-------|
A|---------|---------|---------|---------|---------|---------|---------|---------|---------|
E|---------|---------|---------|---------|---------|---------|---------|---------|---------|

E|---------|---------|---------|---------|---------|---------|---------|---------|-----------------------------------------------------------------|
B|---------|---------|---------|---------|---------|---------|---------|---------|-----------------0-------------------------------3---------------|
G|-%-------|-%-------|-%-------|-%-------|-%-------|-%-------|-%-------|-%-------|---------2---------------2---------------2---------------2-------|
D|-%-------|-%-------|-%-------|-%-------|-%-------|-%-------|-%-------|-%-------|-----2-------2-------2-------2-------3-------3-------3-------3---|
A|---------|---------|---------|---------|---------|---------|---------|---------|-0-------------------------------0-------------------------------|
E|---------|---------|---------|---------|---------|---------|---------|---------|-----------------------------------------------------------------|

E|--------------------------------------------------------------|-----------------------------------------------------------------|
B|-----------------0--------------------------------------------|-----------------0-------------------------------3---------------|
G|---------2---------------2---------------0-----------0--------|---------2---------------2---------------2---------------2-------|
D|-----2-------2-------2-------2-------0-----------0------------|-----2-------2-------2-------2-------3-------3-------3-------3---|
A|-0-------------------------------3-----------2----------------|-0-------------------------------0-------------------------------|
E|---------------------------------------------------------3----|-----------------------------------------------------------------|

E|--------------------------------------------------------------|---------|---------|
B|-----------------0--------------------------------------------|---------|---------|
G|---------2---------------2---------------0-----------0--------|-%-------|-%-------|
D|-----2-------2-------2-------2-------0-----------0------------|-%-------|-%-------|
A|-0-------------------------------3-----------2----------------|---------|---------|
E|---------------------------------------------------------3----|---------|---------|

E|---------|---------|---------------------------------------------------------------------------------|
B|---------|---------|---------------------------------------------------------------------------------|
G|-%-------|-%-------|--------------14-14---------------14-14------------------------------------------|
D|-%-------|-%-------|-12-14--14-14-14-14--12-14--14-14-14-14--8--10--10-10-10-10--8--10--10-10-10-10--|
A|---------|---------|-12-----12-12-12-12--12-----12-12-12-12--8------8--8--8--8---8------8--8--8--8---|
E|---------|---------|---------------------------------------------------------------------------------|

E|---------------------------------------------------------------------------------|
B|---------------------------------------------------------------------------------|
G|---------------------------------------------------------------------------------|
D|-10-12--12-12-12-12--10-12--12-12-12-12--10-12--12-12-12-12--10-12--12-12-12-12--|
A|-10-----10-10-10-10--10-----10-10-10-10--10-----10-10-10-10--10-----10-10-10-10--|
E|---------------------------------------------------------------------------------|

E|---------------------------------------------------------------------------------|
B|---------------------------------------------------------------------------------|
G|--------------14-14---------------14-14------------------------------------------|
D|-12-14--14-14-14-14--12-14--14-14-14-14---------10-10-10-10---------12-12-12-12--|
A|-12-----12-12-12-12--12-----12-12-12-12--8--10--10-10-10-10--10-12--12-12-12-12--|
E|-----------------------------------------8------8--8--8--8---10-----10-10----10--|

E|---------------------------------------------------------------------------------|
B|---------------------------------------------------------------------------------|
G|---------------------------------------------------------------------------------|
D|---------------------------------------------------------------------------------|
A|-12-14--14-14-14-14--12-14--14-14-14-14--12-14--14-14-14-14--12-14--14-14-14-14--|
E|-12-----12-12-12-12--12-----12-12-12-12--12-----12-12-12-12--12-----12-12-12-12--|

E|---------------------------------------------------------------------------------|
B|---------------------------------------------------------------------------------|
G|--------------14-14---------------14-14------------------------------------------|
D|-12-14--14-14-14-14--12-14--14-14-14-14--8--10--10-10-10-10--8--10--10-10-10-10--|
A|-12-----12-12-12-12--12-----12-12-12-12--8------8--8--8--8---8------8--8--8--8---|
E|---------------------------------------------------------------------------------|

E|---------------------------------------------------------------------------------|
B|---------------------------------------------------------------------------------|
G|---------------------------------------------------------------------------------|
D|-10-12--12-12-12-12--10-12--12-12-12-12--10-12--12-12-12-12--10-12--12-12-12-12--|
A|-10-----10-10-10-10--10-----10-10-10-10--10-----10-10-10-10--10-----10-10-10-10--|
E|---------------------------------------------------------------------------------|

E|---------------------------------------------------------------------------------|
B|---------------------------------------------------------------------------------|
G|--------------14-14---------------14-14------------------------------------------|
D|-12-14--14-14-14-14--12-14--14-14-14-14---------10-10-10-10---------12-12-12-12--|
A|-12-----12-12-12-12--12-----12-12-12-12--8--10--10-10-10-10--10-12--12-12-12-12--|
E|-----------------------------------------8------8--8--8--8---10-----10-10----10--|

E|---------------------------------------------------------------------------------|
B|---------------------------------------------------------------------------------|
G|---------------------------------------------------------------------------------|
D|---------------------------------------------------------------------------------|
A|-12-14--14-14-14-14--12-14--14-14-14-14--12-14--14-14-14-14--12-14--14-14-14-14--|
E|-12-----12-12-12-12--12-----12-12-12-12--12-----12-12-12-12--12-----12-12-12-12--|

E|---------------------------------------------------------------------------------|
B|---------------------------------------------------------------------------------|
G|--------------14-14---------------14-14------------------------------------------|
D|-12-14--14-14-14-14--12-14--14-14-14-14--8--10--10-10-10-10--8--10--10-10-10-10--|
A|-12-----12-12-12-12--12-----12-12-12-12--8------8--8--8--8---8------8--8--8--8---|
E|---------------------------------------------------------------------------------|

E|---------------------------------------------------------------------------------|
B|---------------------------------------------------------------------------------|
G|---------------------------------------------------------------------------------|
D|-10-12--12-12-12-12--10-12--12-12-12-12--10-12--12-12-12-12--10-12--12-12-12-12--|
A|-10-----10-10-10-10--10-----10-10-10-10--10-----10-10-10-10--10-----10-10-10-10--|
E|---------------------------------------------------------------------------------|

E|---------------------------------------------------------------------------------|
B|---------------------------------------------------------------------------------|
G|--------------14-14---------------14-14------------------------------------------|
D|-12-14--14-14-14-14--12-14--14-14-14-14---------10-10-10-10---------12-12-12-12--|
A|-12-----12-12-12-12--12-----12-12-12-12--8--10--10-10-10-10--10-12--12-12-12-12--|
E|-----------------------------------------8------8--8--8--8---10-----10-10----10--|

E|---------|---------|---------|---------|---------|---------|---------|---------|---------|
B|---------|---------|---------|---------|---------|---------|---------|---------|---------|
G|-%-------|-%-------|-%-------|-%-------|-%-------|-%-------|-%-------|-%-------|-%-------|
D|-%-------|-%-------|-%-------|-%-------|-%-------|-%-------|-%-------|-%-------|-%-------|
A|---------|---------|---------|---------|---------|---------|---------|---------|---------|
E|---------|---------|---------|---------|---------|---------|---------|---------|---------|

E|---------|---------|---------|---------|---------|---------|---------|---------|---------|
B|---------|---------|---------|---------|---------|---------|---------|---------|---------|
G|-%-------|-%-------|-%-------|-%-------|-%-------|-%-------|-%-------|-%-------|-%-------|
D|-%-------|-%-------|-%-------|-%-------|-%-------|-%-------|-%-------|-%-------|-%-------|
A|---------|---------|---------|---------|---------|---------|---------|---------|---------|
E|---------|---------|---------|---------|---------|---------|---------|---------|---------|

E|---------|---------|---------|---------|---------|---------|---------|---------|---------|
B|---------|---------|---------|---------|---------|---------|---------|---------|---------|
G|-%-------|-%-------|-%-------|-%-------|-%-------|-%-------|-%-------|-%-------|-%-------|
D|-%-------|-%-------|-%-------|-%-------|-%-------|-%-------|-%-------|-%-------|-%-------|
A|---------|---------|---------|---------|---------|---------|---------|---------|---------|
E|---------|---------|---------|---------|---------|---------|---------|---------|---------|

E|---------|---------|---------|---------|---------|---------|---------|---------|---------|
B|---------|---------|---------|---------|---------|---------|---------|---------|---------|
G|-%-------|-%-------|-%-------|-%-------|-%-------|-%-------|-%-------|-%-------|-%-------|
D|-%-------|-%-------|-%-------|-%-------|-%-------|-%-------|-%-------|-%-------|-%-------|
A|---------|---------|---------|---------|---------|---------|---------|---------|---------|
E|---------|---------|---------|---------|---------|---------|---------|---------|---------|

E|---------|---------|---------|---------|---------|---------|---------|---------|---------|
B|---------|---------|---------|---------|---------|---------|---------|---------|---------|
G|-%-------|-%-------|-%-------|-%-------|-%-------|-%-------|-%-------|-%-------|-%-------|
D|-%-------|-%-------|-%-------|-%-------|-%-------|-%-------|-%-------|-%-------|-%-------|
A|---------|---------|---------|---------|---------|---------|---------|---------|---------|
E|---------|---------|---------|---------|---------|---------|---------|---------|---------|

E|---------|---------|---------|---------|---------|---------|---------|---------|---------|
B|---------|---------|---------|---------|---------|---------|---------|---------|---------|
G|-%-------|-%-------|-%-------|-%-------|-%-------|-%-------|-%-------|-%-------|-%-------|
D|-%-------|-%-------|-%-------|-%-------|-%-------|-%-------|-%-------|-%-------|-%-------|
A|---------|---------|---------|---------|---------|---------|---------|---------|---------|
E|---------|---------|---------|---------|---------|---------|---------|---------|---------|

E|---------|---------|---------|---------|---------|-----------------------------------------------------------------|
B|---------|---------|---------|---------|---------|-----------------0-------------------------------3---------------|
G|-%-------|-%-------|-%-------|-%-------|-%-------|---------2---------------2---------------2---------------2-------|
D|-%-------|-%-------|-%-------|-%-------|-%-------|-----2-------2-------2-------2-------3-------3-------3-------3---|
A|---------|---------|---------|---------|---------|-0-------------------------------0-------------------------------|
E|---------|---------|---------|---------|---------|-----------------------------------------------------------------|

E|--------------------------------------------------------------|-----------------------------------------------------------------|
B|-----------------0--------------------------------------------|-----------------0-------------------------------3---------------|
G|---------2---------------2---------------0-----------0--------|---------2---------------2---------------2---------------2-------|
D|-----2-------2-------2-------2-------0-----------0------------|-----2-------2-------2-------2-------3-------3-------3-------3---|
A|-0-------------------------------3-----------2----------------|-0-------------------------------0-------------------------------|
E|---------------------------------------------------------3----|-----------------------------------------------------------------|

E|--------------------------------------------------------------|---------|
B|-----------------0--------------------------------------------|---------|
G|---------2---------------2---------------0-----------0--------|---------|
D|-----2-------2-------2-------2-------0-----------0------------|---------|
A|-0-------------------------------3-----------2----------------|---------|
E|---------------------------------------------------------3----|-3-------|
Iron Maiden - The Aftermath
Iron Maiden - The Aftermath.gp3