Iron Maiden - The Angel & The Gambler

Iron Maiden



Title: The Angel & The Gambler
Album: Virtual XI
Artist: Iron Maiden
Author: 

Track 1: Dist. Guitar 1
E|-5-------------------------------|----------------------------------------|--------------------------------------------|
B|-5-----8-------------------------|-8--------------------------------------|--------------------------------------------|
G|-2-----7-----5---------5----7----|-7----7---7---5---------5---------------|--------------------------------------------|
D|------------------7--------------|-------------------7----------7----5----|---------------------------------------7----|
A|---------------------------------|----------------------------------------|-7----6----5----3----5----5---5---3---------|
E|---------------------------------|----------------------------------------|--------------------------------------------|

E|----------------------------------------|----------------------------------------|
B|------8----8----------------------------|----------------------------------------|
G|-5----7----7---7---5----7----5----5-----|-7----7---5---7----5----5-----5----11---|
D|----------------------------------------|----------------------------------------|
A|----------------------------------------|----------------------------------------|
E|----------------------------------------|----------------------------------------|

E|----------------12---12---10---12---12---|-12---10---12-------------12---12--------|
B|------10---10----------------------------|----------------12---10-------------12---|
G|-11--------------------------------------|-----------------------------------------|
D|-----------------------------------------|-----------------------------------------|
A|-----------------------------------------|-----------------------------------------|
E|-----------------------------------------|-----------------------------------------|

E|-10---------------------|-------15-------------15---15----|-------15----15----17---17---|
B|------10---13----13-----|-15----15---15---15--------15----|-15----------15--------------|
G|------------------------|---------------------------------|-----------------------------|
D|------------------------|---------------------------------|-----------------------------|
A|------------------------|---------------------------------|-----------------------------|
E|------------------------|---------------------------------|-----------------------------|

E|-17------|-17----17-------------17--20--17------17--20--|-17------17--20--17------20---20----20----|
B|---------|------------20---20---------------20----------|-----20--------------20-------------------|
G|---------|----------------------------------------------|------------------------------------------|
D|---------|----------------------------------------------|------------------------------------------|
A|---------|----------------------------------------------|------------------------------------------|
E|---------|----------------------------------------------|------------------------------------------|

E|-20----20---17---------17--20--17------|-17--20--17------17--20--17------17--20--17------17--20--17------|
B|-----------------20----------------20--|-------------20--------------20--------------20--------------20--|
G|---------------------------------------|-----------------------------------------------------------------|
D|---------------------------------------|-----------------------------------------------------------------|
A|---------------------------------------|-----------------------------------------------------------------|
E|---------------------------------------|-----------------------------------------------------------------|

E|-20----20----17----17----|-8----8-----------------------------8----|-8------------------------10---10----|
B|-------------------------|-8----8----10---8----10---8----X----8----|-8----8----10---8----10--------------|
G|-------------------------|-----------9----7----9----7----X---------|------7----9----7----9---------------|
D|-------------------------|-----------------------------------------|-------------------------------------|
A|-------------------------|-----------------------------------------|-------------------------------------|
E|-------------------------|-----------------------------------------|-------------------------------------|

E|-10----------------------------------------------------------------------------|-------15----15---------8----|
B|-------8---10--8-------8---10--8---10--8-------8---10--8---10--8-------10--8---|-10----------------X---------|
G|-------------------9-----------------------9-----------------------9-----------|-----------------------------|
D|-------------------------------------------------------------------------------|-----------------------------|
A|-------------------------------------------------------------------------------|-----------------------------|
E|-------------------------------------------------------------------------------|-----------------------------|

E|-8----X----5----X------------------------|-----------------------------------------|
B|---------------------8----5--------------|-----------------------------------------|
G|-------------------------------8----7----|-5---------------------------------------|
D|-----------------------------------------|------7----6----5------------------------|
A|-----------------------------------------|---------------------7----6----5---------|
E|-----------------------------------------|------------------------------------8----|

E|---------------------------------|---------------|-----------5-----------------------------|
B|-----------------X----X----15----|-15----13------|------5---------5----8-------------------|
G|-----------------X----X----14----|-14----12------|-7------------------------5---------7----|
D|---------------------------------|---------------|-------------------------------7---------|
A|---------------------------------|---------------|-----------------------------------------|
E|-3----5----5---------------------|---------------|-----------------------------------------|

E|-----------5-----------------------------|-8----X----5-----------------------------|
B|------5---------5----8-------------------|-8----X----5----5------------------------|
G|-7------------------------5---------5----|---------------------7---------5---------|
D|-------------------------------7---------|--------------------------7---------7----|
A|-----------------------------------------|-----------------------------------------|
E|-----------------------------------------|-----------------------------------------|

E|-------------------------------------|-----------------------------------------|-----------------------------------------|
B|-------------------------------------|-----------------------------------------|-----------------------------------------|
G|----------------5----5-----5---------|-----------------------------------------|-----------------------------------------|
D|-5--------------5----5-----5----7----|-7----7----5---------7----7----5---------|-7----7----5---------7----7----5---------|
A|------7----5-------------------------|----------------7-------------------7----|----------------7-------------------7----|
E|-------------------------------------|-----------------------------------------|-----------------------------------------|

E|---------------------------------|----------------------------|
B|-------8-----8----5--------------|----------------------------|
G|-----------------------8----7----|-5---------7----5----5------|
D|---------------------------------|------7---------------------|
A|-7-------------------------------|----------------------------|
E|---------------------------------|----------------------------|
Iron Maiden - The Angel & The Gambler
Iron Maiden - The Angel & The Gambler.gp3