Iron Maiden - The Apparation

Iron Maiden - The Apparation

Iron Maiden



Title: The Apparation
Album: 
Artist: Iron Maiden
Author: Iron Maiden

Track 1: Guitar 1
E|-------|----------------------------------------|-------------------------------------------|
B|-------|----------------------------------------|-------------------------------------------|
G|-%-----|-------------------%--------------%-----|-%-----------------%-----------------%-----|
D|-%-----|------9---9---9----%----10---10---%-----|-%----7---7---7----%----9---9---9----%-----|
A|-------|------7---7---7---------7----7----------|------5---5---5---------7---7---7----------|
E|-------|-0--------------------------------------|-------------------------------------------|

E|-------------------------------------------|-------------------------------------------|
B|-------------------------------------------|-------------------------------------------|
G|-%-----------------%-----------------%-----|-%-----------------%-----------------%-----|
D|-%----9---9---9----%----10--10--10---%-----|-%----7---7---7----%----9---9---9----%-----|
A|------7---7---7---------7---7---7----------|------5---5---5---------7---7---7----------|
E|-------------------------------------------|-------------------------------------------|

E|----------------------------------------|-----------------------------------------------------|
B|----------------------------------------|-----------------------------------------------------|
G|-%-----------------%--------------%-----|-%-----------------%-----------------------------%---|
D|-%----9---9---9----%----10---10---%-----|-%----7---7---7----%----9---9---9----------------%---|
A|------7---7---7---------7----7----------|------5---5---5---------7---7---7--------------------|
E|----------------------------------------|-------------------------------------0---0---0-------|

E|----------------------------------------|-------------------|-------------------------------------------|
B|----------------------------------------|-------------------|-------------------------------------------|
G|-%-----------------%--------------%-----|-------------------|-%----9---9---9----%----7---7---7----%-----|
D|-%----9---9---9----%----10---10---%-----|-7----9----9-------|-%----7---7---7----%----5---5---5----%-----|
A|------7---7---7---------7----7----------|-5----7----7-------|------7---7---7---------5---5---5----------|
E|----------------------------------------|-------------------|-------------------------------------------|

E|--------------------------------------------------|-------------------------------------------|
B|--------------------------------------------------|-------------------------------------------|
G|-%-----------------%------------------------------|-%----9---9---9----%----7---7---7----%-----|
D|-%----7---7---7----%----7---7---7-----------------|-%----7---7---7----%----5---5---5----%-----|
A|------5---5---5---------5---5---5----7---7---7----|------7---7---7---------5---5---5----------|
E|-------------------------------------5---5---5----|-------------------------------------------|

E|------------------------|-------------------------------------------|--------------------------------------------------|
B|------------------------|-------------------------------------------|--------------------------------------------------|
G|------------------------|-%----9---9---9----%----7---7---7----%-----|-%-----------------%------------------------------|
D|-5----7----7-----7------|-%----7---7---7----%----5---5---5----%-----|-%----7---7---7----%----7---7---7-----------------|
A|-3----5----5-----5------|------7---7---7---------5---5---5----------|------5---5---5---------5---5---5----7---7---7----|
E|------------------------|-------------------------------------------|-------------------------------------5---5---5----|

E|-------------------------------------------|------------------------|-----------------------------------------------|
B|-------------------------------------------|------------------------|-----------------------------------------------|
G|-%----9---9---9----%----7---7---7----%-----|------------------------|-----------------------------------------------|
D|-%----7---7---7----%----5---5---5----%-----|-5----7----7-----7------|-------------------------------------5---------|
A|------7---7---7---------5---5---5----------|-3----5----5-----5------|-7----7----5---7---7----7----5---7---5----7----|
E|-------------------------------------------|------------------------|-7----7----5---7---7----7----5---7--------7----|

E|-----------------------------------------------------------|-----------------------------------------------|
B|-----------------------------------------------------------|-----------------------------------------------|
G|-----------------------------------------------------------|-----------------------------------------------|
D|------------------------------5---5---5---7---5---4--------|-------------------------------------5---------|
A|-7----5---7---7---7---5---7---5---5---5---7---5---4---7----|-7----7----5---7---7----7----5---7---5----7----|
E|-7----5---7---7---7---5---7---------------------------7----|-7----7----5---7---7----7----5---7--------7----|

E|-----------------------------------------------------------|-----------------------------------------------|
B|-----------------------------------------------------------|-----------------------------------------------|
G|-----------------------------------------------------------|-----------------------------------------------|
D|------------------------------5---5---5---7---5---4--------|-------------------------------------7---------|
A|-7----5---7---7---7---5---7---5---5---5---7---5---4---7----|-9----9----7---9---9----9----7---9---7----9----|
E|-7----5---7---7---7---5---7---------------------------7----|-9----9----7---9---9----9----7---9--------9----|

E|-----------------------------------------------------------|-----------------------------------------------|
B|-----------------------------------------------------------|-----------------------------------------------|
G|-----------------------------------------------------------|-----------------------------------------------|
D|------------------------------7---7---7---9---7---6--------|-------------------------------------7---------|
A|-9----7---9---9---9---7---9---7---7---7---9---7---6---9----|-9----9----7---9---9----9----7---9---7----9----|
E|-9----7---9---9---9---7---9---------------------------9----|-9----9----7---9---9----9----7---9--------9----|

E|-----------------------------------------------------------|-----------------------------------------------|
B|-----------------------------------------------------------|-----------------------------------------------|
G|-----------------------------------------------------------|-----------------------------------------------|
D|------------------------------7---7---7---9---7---6--------|-------------------------------------7---------|
A|-9----7---9---9---9---7---9---7---7---7---9---7---6---9----|-9----9----7---9---9----9----7---9---7----9----|
E|-9----7---9---9---9---7---9---------------------------9----|-9----9----7---9---9----9----7---9--------9----|

E|-----------------------------------------------------------|-----------------------------------------------|
B|-----------------------------------------------------------|-----------------------------------------------|
G|-----------------------------------------------------------|-----------------------------------------------|
D|------------------------------7---7---7---9---7---6--------|-------------------------------------7---------|
A|-9----7---9---9---9---7---9---7---7---7---9---7---6---9----|-9----9----7---9---9----9----7---9---7----9----|
E|-9----7---9---9---9---7---9---------------------------9----|-9----9----7---9---9----9----7---9--------9----|

E|-----------------------------------------------------------|------------------------------------------7---9-----7---|
B|-----------------------------------------------------------|------5-------5-------5---7---9---7---9-----------------|
G|-----------------------------------------------------------|-6--------6-------6-------------------------------------|
D|------------------------------7---7---7---9---7---6--------|--------------------------------------------------------|
A|-9----7---9---9---9---7---9---7---7---7---9---7---6---9----|--------------------------------------------------------|
E|-9----7---9---9---9---7---9---------------------------9----|--------------------------------------------------------|

E|-7---6---7---9---7---6-------------------------------------------|-----------------------------------------------------|
B|-------------------------7---7---7---5---7---9---7---5-----------|-----------------------------------------------------|
G|---------------------------------------------------------6---4---|-----------------------------------------------------|
D|-----------------------------------------------------------------|-4------------4------------4------------4------------|
A|-----------------------------------------------------------------|-4------------4------------4------------4------------|
E|-----------------------------------------------------------------|-2----2---2---2----2---2---2----2---2---2----2---2---|

E|----------------------------------------------|-----------------------------------------------------|
B|----------------------------------------------|-----------------------------------------------------|
G|-4------------4------------4------------------|-----------------------------------------------------|
D|-4------------4------------4------------2-----|-4------------4------------4------------4------------|
A|-2----2---2---2----2---2---2----2---2---2-----|-4------------4------------4------------4------------|
E|----------------------------------------0-----|-2----2---2---2----2---2---2----2---2---2----2---2---|

E|----------------------------------------------|-----------------------------------------|
B|----------------------------------------------|-----------------------------------------|
G|-4------------4------------4------------------|-------------------------------10---12---|
D|-4------------4------------4------------2-----|-10---12---10---12---10---12---10---12---|
A|-2----2---2---2----2---2---2----2---2---2-----|-10---12---10---12---10---12-------------|
E|----------------------------------------0-----|-----------------------------------------|

E|----------------------------------------------|-----------------------------------------|
B|----------------------------------------------|-----------------------------------------|
G|-12-----------12-----------12-----------------|-------------------------------10---12---|
D|-12-----------12-----------12-----------10----|-10---12---10---12---10---12---10---12---|
A|------10--10-------10--10-------10--10--10----|-10---12---10---12---10---12-------------|
E|----------------------------------------8-----|-----------------------------------------|

E|----------------------------------------------|--------------------------------------------------------------|
B|----------------------------------------------|--------------------------------------------------------------|
G|-12-----------12-----------12-----------------|--------------------------------------------------------------|
D|-12-----------12-----------12-----------10----|-------------------------------------------------5------------|
A|------10--10-------10--10-------10--10--10----|-5-----------5-----------5-----------5---------------6---7----|
E|----------------------------------------8-----|-----6---7-------6---7-------6---7-------6---7----------------|

E|-----------------------------------------------------------|--------------------------------------------------------------|
B|-----------------------------------------------------------|--------------------------------------------------------------|
G|-----------------------------------------------------------|--------------------------------------------------------------|
D|-----------------------------------------------------------|-------------------------------------------------5------------|
A|-5-----------5-----------5------------5--------------------|-0-----------5-----------5-----------5---------------6---7----|
E|-----6---7-------6---7-------6---7--------6---7---3---0----|-----6---7-------6---7-------6---7-------6---7----------------|

E|------3----3-----3------|----------------------------------------|-------------------------------------------|
B|------3----3-----3------|----------------------------------------|-------------------------------------------|
G|------0----0-----0------|-------------------%--------------%-----|-%-----------------%-----------------%-----|
D|-----------------0------|------9---9---9----%----10---10---%-----|-%----7---7---7----%----9---9---9----%-----|
A|------3----3------------|------7---7---7---------7----7----------|------5---5---5---------7---7---7----------|
E|-0---------------3------|-0--------------------------------------|-------------------------------------------|

E|-------------------------------------------|-------------------------------------------|
B|-------------------------------------------|-------------------------------------------|
G|-%-----------------%-----------------%-----|-%-----------------%-----------------%-----|
D|-%----9---9---9----%----10--10--10---%-----|-%----7---7---7----%----9---9---9----%-----|
A|------7---7---7---------7---7---7----------|------5---5---5---------7---7---7----------|
E|-------------------------------------------|-------------------------------------------|

E|----------------------------------------|-----------------------------------------------------|
B|----------------------------------------|-----------------------------------------------------|
G|-%-----------------%--------------%-----|-%-----------------%-----------------------------%---|
D|-%----9---9---9----%----10---10---%-----|-%----7---7---7----%----9---9---9----------------%---|
A|------7---7---7---------7----7----------|------5---5---5---------7---7---7--------------------|
E|----------------------------------------|-------------------------------------0---0---0-------|

E|----------------------------------------|-------------------|-------------------------------------------|
B|----------------------------------------|-------------------|-------------------------------------------|
G|-%-----------------%--------------%-----|-------------------|-%----9---9---9----%----7---7---7----%-----|
D|-%----9---9---9----%----10---10---%-----|-7----9----9-------|-%----7---7---7----%----5---5---5----%-----|
A|------7---7---7---------7----7----------|-5----7----7-------|------7---7---7---------5---5---5----------|
E|----------------------------------------|-------------------|-------------------------------------------|

E|--------------------------------------------------|-------------------------------------------|
B|--------------------------------------------------|-------------------------------------------|
G|-%-----------------%------------------------------|-%----9---9---9----%----7---7---7----%-----|
D|-%----7---7---7----%----7---7---7-----------------|-%----7---7---7----%----5---5---5----%-----|
A|------5---5---5---------5---5---5----7---7---7----|------7---7---7---------5---5---5----------|
E|-------------------------------------5---5---5----|-------------------------------------------|

E|------------------------|-------------------------------------------|--------------------------------------------------|
B|------------------------|-------------------------------------------|--------------------------------------------------|
G|------------------------|-%----9---9---9----%----7---7---7----%-----|-%-----------------%------------------------------|
D|-5----7----7-----7------|-%----7---7---7----%----5---5---5----%-----|-%----7---7---7----%----7---7---7-----------------|
A|-3----5----5-----5------|------7---7---7---------5---5---5----------|------5---5---5---------5---5---5----7---7---7----|
E|------------------------|-------------------------------------------|-------------------------------------5---5---5----|

E|-------------------------------------------|------------------------|---------|
B|-------------------------------------------|------------------------|---------|
G|-%----9---9---9----%----7---7---7----%-----|------------------------|---------|
D|-%----7---7---7----%----5---5---5----%-----|-5----7----7-----7------|-7-------|
A|------7---7---7---------5---5---5----------|-3----5----5-----5------|-5-------|
E|-------------------------------------------|------------------------|---------|
Iron Maiden - The Apparation
Iron Maiden - The Apparation.gp3