Iron Maiden - The Assassin

Iron Maiden - The Assassin

Iron Maiden



Title: The Assassin
Album: No Prayer For The Dying
Artist: Iron Maiden
Author: Iron Maiden

Track 1: Distortion Guitar
E|----------------0----0------|----------------0----0------|----------------0----0------|
B|-----------6----------------|-----------6----------------|-----------6----------------|
G|------7---------------------|-%----7---------------------|-%----7---------------------|
D|-7--------------------------|-%--------------------------|-%--------------------------|
A|----------------------------|----------------------------|----------------------------|
E|----------------------------|----------------------------|----------------------------|

E|----------------0----0------|----------------0----0------|----------------0----0------|
B|-----------1----------------|-----------6----------------|-----------6----------------|
G|------0---------------------|------7---------------------|-%----7---------------------|
D|-3--------------------------|-7--------------------------|-%--------------------------|
A|----------------------------|----------------------------|----------------------------|
E|----------------------------|----------------------------|----------------------------|

E|----------------0----0------|----------------0----0------|----------------0----0------|
B|-----------6----------------|-----------1----------------|-----------6----------------|
G|-%----7---------------------|------0---------------------|------7---------------------|
D|-%--------------------------|-3--------------------------|-7--------------------------|
A|----------------------------|----------------------------|----------------------------|
E|----------------------------|----------------------------|----------------------------|

E|----------------0----0------|----------------0----0------|----------------0----0------|
B|-----------6----------------|-----------6----------------|-----------1----------------|
G|-%----7---------------------|-%----7---------------------|------0---------------------|
D|-%--------------------------|-%--------------------------|-3--------------------------|
A|----------------------------|----------------------------|----------------------------|
E|----------------------------|----------------------------|----------------------------|

E|----------------0----0------|----------------0----0------|----------------0----0------|
B|-----------6----------------|-----------6----------------|-----------6----------------|
G|------7---------------------|-%----7---------------------|-%----7---------------------|
D|-7--------------------------|-%--------------------------|-%--------------------------|
A|----------------------------|----------------------------|----------------------------|
E|----------------------------|----------------------------|----------------------------|

E|----------------0----0------|-7------8----8-----10----|-8------7----7-----5-----|
B|-----------1----------------|-------------------------|-------------------------|
G|------0---------------------|-4------5----5-----7-----|-5------4----4-----2-----|
D|-3--------------------------|-------------------------|-------------------------|
A|----------------------------|-------------------------|-------------------------|
E|----------------------------|-------------------------|-------------------------|

E|-5------7----7-----8-----|-7-------|-7------8----8-----10----|-8------7----7-----5-----|
B|-------------------------|---------|-------------------------|-------------------------|
G|-2------4----4-----5-----|-4-------|-4------5----5-----7-----|-5------4----4-----2-----|
D|-------------------------|---------|-------------------------|-------------------------|
A|-------------------------|---------|-------------------------|-------------------------|
E|-------------------------|---------|-------------------------|-------------------------|

E|-5------7----7-----------|---------|-7------8----8-----10----|-8------7----7-----5-----|
B|-------------------8-----|-7-------|-------------------------|-------------------------|
G|-2------4----4-----------|---------|-4------5----5-----7-----|-5------4----4-----2-----|
D|-------------------5-----|-4-------|-------------------------|-------------------------|
A|-------------------------|---------|-------------------------|-------------------------|
E|-------------------------|---------|-------------------------|-------------------------|

E|-5------7----7-----8-----|-7-------|-7------8----8-----10----|-8------7----7-----5-----|
B|-------------------------|---------|-------------------------|-------------------------|
G|-2------4----4-----5-----|-4-------|-4------5----5-----7-----|-5------4----4-----2-----|
D|-------------------------|---------|-------------------------|-------------------------|
A|-------------------------|---------|-------------------------|-------------------------|
E|-------------------------|---------|-------------------------|-------------------------|

E|-5------7----7-----------|---------|-------------------|---------|-------------------|
B|-------------------8-----|-7-------|-------------------|---------|-------------------|
G|-2------4----4-----------|---------|-----------9-------|-9-------|-----------10------|
D|-------------------5-----|-4-------|------7------------|---------|------10-----------|
A|-------------------------|---------|-7-----------------|---------|-8-----------------|
E|-------------------------|---------|-------------------|---------|-------------------|

E|---------|-------------------|---------|-------------------|---------|-------------------|
B|---------|-------------------|---------|-------------------|---------|-------------------|
G|-10------|-----------7-------|-7-------|-----------9-------|-9-------|-----------9-------|
D|---------|------7------------|---------|------7------------|---------|------7------------|
A|---------|-5-----------------|---------|-7-----------------|---------|-7-----------------|
E|---------|-------------------|---------|-------------------|---------|-------------------|

E|---------|-------------------|---------|-------------------|---------|-------------------|
B|---------|-------------------|---------|-------------------|---------|-------------------|
G|-9-------|-----------10------|-10------|-----------7-------|-7-------|-----------9-------|
D|---------|------10-----------|---------|------7------------|---------|------7------------|
A|---------|-8-----------------|---------|-5-----------------|---------|-7-----------------|
E|---------|-------------------|---------|-------------------|---------|-------------------|

E|---------|-------------------|---------|-------------------|---------|-------------------|
B|---------|-------------------|---------|-------------------|---------|-------------------|
G|-9-------|-----------5-------|-5-------|-----------6-------|-6-------|-----------3-------|
D|---------|------5------------|---------|------6------------|---------|------3------------|
A|---------|-3-----------------|---------|-4-----------------|---------|-1-----------------|
E|---------|-------------------|---------|-------------------|---------|-------------------|

E|---------|-------------------|---------|------7----8---7---5----7----5----5---------|
B|---------|-------------------|---------|---------------------------------------8----|
G|-3-------|-----------5-------|-5-------|-%------------------------------------------|
D|---------|------5------------|---------|-%------------------------------------------|
A|---------|-3-----------------|---------|--------------------------------------------|
E|---------|-------------------|---------|--------------------------------------------|

E|-----------------------------------------|-----------------------------|-----------------------------|
B|-----------------------------------------|-----------------------------|-----------------------------|
G|-----------------------------------------|-10-----7----7-----7----9----|-----------7-----7----7------|
D|-9---------9-------------------9---------|-10-----5----5-----7----9----|-----------7-----7----7------|
A|-7----7---------7----7----7---------7----|-8------5----5-----5----7----|-5----5----5-----5----5------|
E|-----------------------------------------|-----------------------------|-----------------------------|

E|-----------------------------------------|-----------------------------------------|
B|-----------------------------------------|-----------------------------------------|
G|-----------------------------------------|-----------------------------------------|
D|-4---------4----5----5----5----4---------|-9---------9-------------------9---------|
A|------5-----------------------------5----|-7----7---------7----7----7---------7----|
E|-----------------------------------------|-----------------------------------------|

E|-----------------------------|-----------------------------|-----------------------------------------|
B|-----------------------------|-----------------------------|-----------------------------------------|
G|-10-----7----7-----7----9----|-----------7-----7----7------|-----------------------------------------|
D|-10-----5----5-----7----9----|-----------7-----7----7------|-4---------4----5----5----5----4---------|
A|-8------5----5-----5----7----|-5----5----5-----5----5------|------5-----------------------------5----|
E|-----------------------------|-----------------------------|-----------------------------------------|

E|-------------------------|-------------------------|-------------------------|-------------------------|
B|-------------------------|-------------------------|-------------------------|-------------------------|
G|-%-----5-----5----5------|-6------3----3-----5-----|-%-----6-----6----6------|-3------3----3-----5-----|
D|-%-----5-----5----5------|-6------3----3-----5-----|-%-----6-----6----6------|-3------3----3-----5-----|
A|-------3-----3----3------|-4------1----1-----3-----|-------4-----4----4------|-1------1----1-----3-----|
E|-------------------------|-------------------------|-------------------------|-------------------------|

E|------------------------------------|-------------------------------------|------------------------------------|
B|------------------------------------|-------------------------------------|------------------------------------|
G|-9-----9-----%----4----5---4---2----|-4---------4-------------------------|-9-----9-----%----4----5---4--------|
D|-9-----9-----%----------------------|------5---------5----7---------------|-9-----9-----%-----------------7----|
A|-7-----7----------------------------|--------------------------8----8-----|-7-----7----------------------------|
E|------------------------------------|-------------------------------------|------------------------------------|

E|----------------------------|------------------------------------|-------------------------------------|
B|----------------------------|------------------------------------|-------------------------------------|
G|-4---------4----------------|-9-----9-----%----4----5---4--------|-4---------4-------------------------|
D|------5---------3----8------|-9-----9-----%-----------------7----|------5---------5----7---------------|
A|----------------------------|-7-----7----------------------------|--------------------------8----8-----|
E|----------------------------|------------------------------------|-------------------------------------|

E|------------------------------------|--------------------------------------------|
B|------------------------------------|--------------------------------------------|
G|-9-----9-----%----4----5---4--------|-4------------------------------------------|
D|-9-----9-----%-----------------7----|------5----7----4----5---4---2----4---------|
A|-7-----7----------------------------|---------------------------------------5----|
E|------------------------------------|--------------------------------------------|

E|---------------------|------------------------|-------------------|-----------------------------------------|
B|---------------------|------------------10----|-10------10---10---|-10---8----10--------8-------------------|
G|---------------------|-10-----10---8----------|-------------------|----------------10--------8---------8----|
D|-2-------------------|------------------------|-------------------|-------------------------------10--------|
A|------3----5----2----|------------------------|-------------------|-----------------------------------------|
E|---------------------|------------------------|-------------------|-----------------------------------------|

E|-------------------------------------|---------------|---------------|------------------------8----11---10--------|
B|-------------------------------------|---------8-----|-8------8------|-8---9---8---------8-------------------13---|
G|-7---------7-------------------------|---------8-----|-8------8------|--------------10----------------------------|
D|------10--------8--------------------|---------------|---------------|--------------------------------------------|
A|---------------------8----6----8-----|-3-------------|---------------|--------------------------------------------|
E|-------------------------------------|---------------|---------------|--------------------------------------------|

E|------10---11---13----------|-17------17---15---|-15---15---12----12-----|-------15----14----12----14----------|
B|-13------------------13-----|-------------------|------------------------|-X-----------------------------15----|
G|----------------------------|-------------------|------------------------|-------------------------------------|
D|----------------------------|-------------------|------------------------|-------------------------------------|
A|----------------------------|-------------------|------------------------|-------------------------------------|
E|----------------------------|-------------------|------------------------|-------------------------------------|

E|-------------------------15----14----|-12------------------------------------|----------------------------|
B|-------------13----------------------|-------13------------------------------|----------------------------|
G|-14----12----------12----------------|-------------12----10---9----10----7---|-7--------------------------|
D|-------------------------------------|---------------------------------------|------7----5----7----7------|
A|-------------------------------------|---------------------------------------|----------------------------|
E|-------------------------------------|---------------------------------------|----------------------------|

E|-----------------------------------------------------------|------------------------------12---13---15---17---|
B|-----------------------------------------------------------|-----10--12--13--12---12--15----------------------|
G|----------------------------------9---11--12--11---9---11--|-12-----------------------------------------------|
D|-9---9---10--11--12---9---11--12---------------------------|--------------------------------------------------|
A|-----------------------------------------------------------|--------------------------------------------------|
E|-----------------------------------------------------------|--------------------------------------------------|

E|-19-----0------|---------|---------|---------|---------|---------|---------|---------|
B|---------------|---------|---------|---------|---------|---------|---------|---------|
G|---------------|-%-------|-%-------|-%-------|-%-------|-%-------|-%-------|-%-------|
D|---------------|-%-------|-%-------|-%-------|-%-------|-%-------|-%-------|-%-------|
A|---------------|---------|---------|---------|---------|---------|---------|---------|
E|---------------|---------|---------|---------|---------|---------|---------|---------|

E|---------|---------|---------|---------|---------|---------|---------|---------|---------|
B|---------|---------|---------|---------|---------|---------|---------|---------|---------|
G|-%-------|-%-------|-%-------|-%-------|-%-------|-%-------|-%-------|-%-------|-%-------|
D|-%-------|-%-------|-%-------|-%-------|-%-------|-%-------|-%-------|-%-------|-%-------|
A|---------|---------|---------|---------|---------|---------|---------|---------|---------|
E|---------|---------|---------|---------|---------|---------|---------|---------|---------|

E|---------|---------|---------|---------|---------|---------|---------|---------|---------|
B|---------|---------|---------|---------|---------|---------|---------|---------|---------|
G|-%-------|-%-------|-%-------|-%-------|-%-------|-%-------|-%-------|-%-------|-%-------|
D|-%-------|-%-------|-%-------|-%-------|-%-------|-%-------|-%-------|-%-------|-%-------|
A|---------|---------|---------|---------|---------|---------|---------|---------|---------|
E|---------|---------|---------|---------|---------|---------|---------|---------|---------|

E|---------|---------|---------|---------|---------|---------|-------------------|---------|
B|---------|---------|---------|---------|---------|---------|-------------------|---------|
G|-%-------|-%-------|-%-------|-%-------|-%-------|-%-------|-----------9-------|-9-------|
D|-%-------|-%-------|-%-------|-%-------|-%-------|-%-------|------7------------|---------|
A|---------|---------|---------|---------|---------|---------|-7-----------------|---------|
E|---------|---------|---------|---------|---------|---------|-------------------|---------|

E|-------------------|---------|-------------------|---------|-------------------|---------|
B|-------------------|---------|-------------------|---------|-------------------|---------|
G|-----------10------|-10------|-----------7-------|-7-------|-----------9-------|-9-------|
D|------10-----------|---------|------7------------|---------|------7------------|---------|
A|-8-----------------|---------|-5-----------------|---------|-7-----------------|---------|
E|-------------------|---------|-------------------|---------|-------------------|---------|

E|-------------------|---------|-------------------|---------|-------------------|---------|
B|-------------------|---------|-------------------|---------|-------------------|---------|
G|-----------9-------|-9-------|-----------10------|-10------|-----------7-------|-7-------|
D|------7------------|---------|------10-----------|---------|------7------------|---------|
A|-7-----------------|---------|-8-----------------|---------|-5-----------------|---------|
E|-------------------|---------|-------------------|---------|-------------------|---------|

E|-------------------|---------|-------------------|---------|-------------------|---------|
B|-------------------|---------|-------------------|---------|-------------------|---------|
G|-----------9-------|-9-------|-----------5-------|-5-------|-----------6-------|-6-------|
D|------7------------|---------|------5------------|---------|------6------------|---------|
A|-7-----------------|---------|-3-----------------|---------|-4-----------------|---------|
E|-------------------|---------|-------------------|---------|-------------------|---------|

E|-------------------|---------|-------------------|---------|-------------------|---------|
B|-------------------|---------|-------------------|---------|-------------------|---------|
G|-----------3-------|-3-------|-----------5-------|-5-------|-----------5-------|-5-------|
D|------3------------|---------|------5------------|---------|------5------------|---------|
A|-1-----------------|---------|-3-----------------|---------|-3-----------------|---------|
E|-------------------|---------|-------------------|---------|-------------------|---------|

E|-------------------|---------|-------------------|---------|-------------------|---------|
B|-------------------|---------|-------------------|---------|-------------------|---------|
G|-----------6-------|-6-------|-----------3-------|-3-------|-----------5-------|-5-------|
D|------6------------|---------|------3------------|---------|------5------------|---------|
A|-4-----------------|---------|-1-----------------|---------|-3-----------------|---------|
E|-------------------|---------|-------------------|---------|-------------------|---------|

E|------7----8---7---5----7----5----5---------|-----------------------------------------|
B|---------------------------------------8----|-----------------------------------------|
G|-%------------------------------------------|-----------------------------------------|
D|-%------------------------------------------|-9---------9-------------------9---------|
A|--------------------------------------------|-7----7---------7----7----7---------7----|
E|--------------------------------------------|-----------------------------------------|

E|-----------------------------|-----------------------------|-----------------------------------------|
B|-----------------------------|-----------------------------|-----------------------------------------|
G|-10-----7----7-----7----9----|-----------7-----7----7------|-----------------------------------------|
D|-10-----5----5-----7----9----|-----------7-----7----7------|-4---------4----5----5----5----4---------|
A|-8------5----5-----5----7----|-5----5----5-----5----5------|------5-----------------------------5----|
E|-----------------------------|-----------------------------|-----------------------------------------|

E|-----------------------------------------|-----------------------------|-----------------------------|
B|-----------------------------------------|-----------------------------|-----------------------------|
G|-----------------------------------------|-10-----7----7-----7----9----|-----------7-----7----7------|
D|-9---------9-------------------9---------|-10-----5----5-----7----9----|-----------7-----7----7------|
A|-7----7---------7----7----7---------7----|-8------5----5-----5----7----|-5----5----5-----5----5------|
E|-----------------------------------------|-----------------------------|-----------------------------|

E|-----------------------------------------|-------------------------|-------------------------|
B|-----------------------------------------|-------------------------|-------------------------|
G|-----------------------------------------|-%-----5-----5----5------|-6------3----3-----5-----|
D|-4---------4----5----5----5----4---------|-%-----5-----5----5------|-6------3----3-----5-----|
A|------5-----------------------------5----|-------3-----3----3------|-4------1----1-----3-----|
E|-----------------------------------------|-------------------------|-------------------------|

E|-------------------------|-------------------------|--------------------|
B|-------------------------|-------------------------|--------------------|
G|-%-----6-----6----6------|-3------3----3-----5-----|-9-----9-----%------|
D|-%-----6-----6----6------|-3------3----3-----5-----|-9-----9-----%------|
A|-------4-----4----4------|-1------1----1-----3-----|-7-----7------------|
E|-------------------------|-------------------------|--------------------|
Iron Maiden - The Assassin
Iron Maiden - The Assassin.gp3