Iron Maiden - The Clairvoyant

Iron Maiden



Title: The Clairvoyant
Album: 
Artist: 
Author: Iron Maiden

Track 1: Guitar 1
E|---------|---------|---------|---------|-----------------------------------------|
B|---------|---------|---------|---------|-----------------------------------------|
G|-%-------|-%-------|-%-------|-%-------|-----------------------------------------|
D|-%-------|-%-------|-%-------|-%-------|-----------------------------------------|
A|---------|---------|---------|---------|-5----5----5----5----5----5----5----5----|
E|---------|---------|---------|---------|-----------------------------------------|

E|-----------------------------------------|-----------------------------------------|
B|-----------------------------------------|-----------------------------------------|
G|-----------------------------------------|-----------------------------------------|
D|-----------------------------------------|-----------------------------------------|
A|-5----5----5----5----5----5----5----5----|-5----5----5----5----5----5----5----5----|
E|-----------------------------------------|-----------------------------------------|

E|-----------------------------------------|-----------------------------------------|
B|-----------------------------------------|-----------------------------------------|
G|-----------------------------------------|-7---------------------------------------|
D|-----------------------------------------|-7---------------------------------------|
A|-5----5----5----5----5----5----5----5----|-5----5----5----5----5----5----5----5----|
E|-----------------------------------------|-----------------------------------------|

E|-----------------------------------------|-----------------------------------------|
B|-----------------------------------------|-----------------------------------------|
G|-----------------------------------------|-----------------------------------------|
D|-----------------------------------------|-----------------------------------------|
A|-5----5----5----5----5----5----5----5----|-5----5----5----5----5----5----5----5----|
E|-----------------------------------------|-----------------------------------------|

E|-----------------------------------------|-----------------------------------------|
B|-----------------------------------------|-----------------------------------------|
G|-----------------------------------------|-7---------------------------------------|
D|-----------------------------------------|-7---------------------------------------|
A|-5----5----5----5----5----5----5----5----|-5----5----5----5----5----5----5----5----|
E|-----------------------------------------|-----------------------------------------|

E|-----------------------------------------|-----------------------------------------|
B|-----------------------------------------|-----------------------------------------|
G|-----------------------------------------|-----------------------------------------|
D|-----------------------------------------|-----------------------------------------|
A|-5----5----5----5----5----5----5----5----|-5----5----5----5----5----5----5----5----|
E|-----------------------------------------|-----------------------------------------|

E|---------|---------|---------|---------|---------|---------|---------|---------|---------|
B|---------|---------|---------|---------|---------|---------|---------|---------|---------|
G|-%-------|-5-------|-5-------|-5-------|-5-------|-7-------|-7-------|-7-------|-7-------|
D|-%-------|-5-------|-5-------|-5-------|-5-------|-7-------|-7-------|-7-------|-7-------|
A|---------|-3-------|-3-------|-3-------|-3-------|-5-------|-5-------|-5-------|-5-------|
E|---------|---------|---------|---------|---------|---------|---------|---------|---------|

E|-----------------------------------------|-----------------------------------------|
B|-----------------------------------------|-----------------------------------------|
G|-7---------------------------------------|-----------------------------------------|
D|-7---------------------------------------|-----------------------------------------|
A|-5----5----5----5----5----5----5----5----|-5----5----5----5----5----5----5----5----|
E|-----------------------------------------|-----------------------------------------|

E|-----------------------------------------|-----------------------------------------|
B|-----------------------------------------|-----------------------------------------|
G|-----------------------------------------|-----------------------------------------|
D|-----------------------------------------|-----------------------------------------|
A|-5----5----5----5----5----5----5----5----|-5----5----5----5----5----5----5----5----|
E|-----------------------------------------|-----------------------------------------|

E|-----------------------------------------|-----------------------------------------|
B|-----------------------------------------|-----------------------------------------|
G|-7---------------------------------------|-----------------------------------------|
D|-7---------------------------------------|-----------------------------------------|
A|-5----5----5----5----5----5----5----5----|-5----5----5----5----5----5----5----5----|
E|-----------------------------------------|-----------------------------------------|

E|-----------------------------------------|---------|---------|---------|---------|
B|-----------------------------------------|---------|---------|---------|---------|
G|-----------------------------------------|---------|-5-------|-5-------|-5-------|
D|-----------------------------------------|---------|-5-------|-5-------|-5-------|
A|-5----5----5----5----5----5----5----5----|-5-------|-3-------|-3-------|-3-------|
E|-----------------------------------------|---------|---------|---------|---------|

E|---------|---------|---------|---------|---------|-1-------|-1-------|-3-------|-3-------|
B|---------|---------|---------|---------|---------|-3-------|-3-------|-3-------|-3-------|
G|-5-------|-7-------|-7-------|-7-------|-7-------|-2-------|-2-------|-5-------|-5-------|
D|-5-------|-7-------|-7-------|-7-------|-7-------|-0-------|-0-------|-5-------|-5-------|
A|-3-------|-5-------|-5-------|-5-------|-5-------|---------|---------|-3-------|-3-------|
E|---------|---------|---------|---------|---------|---------|---------|---------|---------|

E|-5-------|-5-------|---------|---------|-1-------|-3-------|-3-------|-1-------|-1-------|
B|-3-------|-3-------|---------|---------|-3-------|-3-------|-5-------|-3-------|-3-------|
G|-3-------|-3-------|-3-------|-5-------|-2-------|-3-------|-5-------|-2-------|-2-------|
D|-5-------|-5-------|-3-------|-5-------|-0-------|-0-------|-0-------|-0-------|-0-------|
A|---------|---------|-1-------|-3-------|-0-------|-1-------|---------|-0-------|-0-------|
E|---------|---------|---------|---------|---------|---------|---------|---------|---------|

E|-3-------|-3-------|-3-------|-1-------|-1-------|-3-------|-3-------|-5-------|-5-------|
B|-3-------|-5-------|-5-------|-3-------|-3-------|-3-------|-3-------|-3-------|-3-------|
G|-3-------|-5-------|-5-------|-2-------|-2-------|-5-------|-5-------|-3-------|-3-------|
D|-0-------|-0-------|-0-------|-0-------|-0-------|-5-------|-5-------|-5-------|-5-------|
A|-1-------|---------|---------|---------|---------|-3-------|-3-------|---------|---------|
E|---------|---------|---------|---------|---------|---------|---------|---------|---------|

E|---------|---------|-1-------|-3-------|-3-------|-1-------|-1-------|-3-------|-3-------|
B|---------|---------|-3-------|-3-------|-5-------|-3-------|-3-------|-3-------|-5-------|
G|-3-------|-5-------|-2-------|-3-------|-5-------|-2-------|-2-------|-3-------|-5-------|
D|-3-------|-5-------|-0-------|-0-------|-0-------|-0-------|-0-------|-0-------|-0-------|
A|-1-------|-3-------|-0-------|-1-------|---------|-0-------|-0-------|-1-------|---------|
E|---------|---------|---------|---------|---------|---------|---------|---------|---------|

E|-3-------|-3-------|-1-------|---------|-3-------|-3-------|-1-------|---------|--------|
B|-5-------|-4-------|-1-------|-3-------|-4-------|-4-------|-1-------|-3-------|-3------|
G|-5-------|-5-------|-1-------|-3-------|-5-------|-5-------|-1-------|-3-------|-3------|
D|-0-------|-5-------|---------|-3-------|-5-------|-5-------|---------|-3-------|-3------|
A|---------|---------|---------|-3-------|---------|---------|---------|-3-------|-3------|
E|---------|---------|---------|---------|---------|---------|---------|---------|--------|

E|--------|--------------------|---------------|--------------------|---------|--------------------|
B|--------|--------------------|---------------|-7------------------|---------|-7------------------|
G|-%------|-7------7----7------|-5------7------|-7------7------5----|-7-------|-7------7----7------|
D|-%------|-7------8----8------|-5------7------|-7------8------5----|-7-------|-7------8----8------|
A|--------|-5------5----5------|-3------5------|-5------5------3----|-5-------|-5------5----5------|
E|--------|--------------------|---------------|--------------------|---------|--------------------|

E|---------------|--------------------|---------|--------------------|---------------|
B|---------------|--------------------|---------|--------------------|---------------|
G|-5------7------|-7------7------5----|-7-------|-7------7----7------|-5------7------|
D|-5------7------|-7------8------5----|-7-------|-7------8----8------|-5------7------|
A|-3------5------|-5------5------3----|-5-------|-5------5----5------|-3------5------|
E|---------------|--------------------|---------|--------------------|---------------|

E|--------------------|---------|--------------------|---------------|--------------------|
B|-7------------------|---------|-7------------------|---------------|--------------------|
G|-7------7------5----|-7-------|-7------7----7------|-5------7------|-7------7------5----|
D|-7------8------5----|-7-------|-7------8----8------|-5------7------|-7------8------5----|
A|-5------5------3----|-5-------|-5------5----5------|-3------5------|-5------5------3----|
E|--------------------|---------|--------------------|---------------|--------------------|

E|---------------|-----------------------------------------|-----------------------------------------|
B|---------------|-----------------------------------------|-----------------------------------------|
G|-%-------%-----|-9----9----9----9----9----9----9----9----|-9----9----9----9----9----9----9----9----|
D|-%-------%-----|-9----9----9----9----9----9----9----9----|-9----9----9----9----9----9----9----9----|
A|---------------|-7----7----7----7----7----7----7----7----|-7----7----7----7----7----7----7----7----|
E|---------------|-0----0----0----0----0----0----0----0----|-0----0----0----0----0----0----0----0----|

E|-----------------------------------------|-----------------------------------------|
B|-----------------------------------------|-----------------------------------------|
G|-9----9----9----9----9----9----9----9----|-9----9----9----9----9----9----9----9----|
D|-9----9----9----9----9----9----9----9----|-9----9----9----9----9----9----9----9----|
A|-7----7----7----7----7----7----7----7----|-7----7----7----7----7----7----7----7----|
E|-0----0----0----0----0----0----0----0----|-0----0----0----0----0----0----0----0----|

E|-----------------------------------------|-----------------------------------------|
B|-----------------------------------------|-----------------------------------------|
G|-9----9----9----9----9----9----9----9----|-9----9----9----9----9----9----9----9----|
D|-9----9----9----9----9----9----9----9----|-9----9----9----9----9----9----9----9----|
A|-7----7----7----7----7----7----7----7----|-7----7----7----7----7----7----7----7----|
E|-0----0----0----0----0----0----0----0----|-0----0----0----0----0----0----0----0----|

E|-----------------------------------------|-----------------------------------------|
B|-----------------------------------------|-----------------------------------------|
G|-9----9----9----9----9----9----9----9----|-9----9----9----9----9----9----9----9----|
D|-9----9----9----9----9----9----9----9----|-9----9----9----9----9----9----9----9----|
A|-7----7----7----7----7----7----7----7----|-7----7----7----7----7----7----7----7----|
E|-0----0----0----0----0----0----0----0----|-0----0----0----0----0----0----0----0----|

E|-----------------------------------------|-----------------------------------------|
B|-----------------------------------------|-----------------------------------------|
G|-9----9----9----9----9----9----9----9----|-9----9----9----9----9----9----9----9----|
D|-9----9----9----9----9----9----9----9----|-9----9----9----9----9----9----9----9----|
A|-7----7----7----7----7----7----7----7----|-7----7----7----7----7----7----7----7----|
E|-0----0----0----0----0----0----0----0----|-0----0----0----0----0----0----0----0----|

E|-----------------------------------------|-----------------------------------------|
B|-----------------------------------------|-----------------------------------------|
G|-9----9----9----9----9----9----9----9----|-9----9----9----9----9----9----9----9----|
D|-9----9----9----9----9----9----9----9----|-9----9----9----9----9----9----9----9----|
A|-7----7----7----7----7----7----7----7----|-7----7----7----7----7----7----7----7----|
E|-0----0----0----0----0----0----0----0----|-0----0----0----0----0----0----0----0----|

E|-----------------------------------------|-----------------------------------------|
B|-----------------------------------------|-----------------------------------------|
G|-9----9----9----9----9----9----9----9----|-9----9----9----9----9----9----9----9----|
D|-9----9----9----9----9----9----9----9----|-9----9----9----9----9----9----9----9----|
A|-7----7----7----7----7----7----7----7----|-7----7----7----7----7----7----7----7----|
E|-0----0----0----0----0----0----0----0----|-0----0----0----0----0----0----0----0----|

E|-----------------------------------------|-----------------------------------------|
B|-----------------------------------------|-----------------------------------------|
G|-9----9----9----9----9----9----9----9----|-%---------------------------------------|
D|-9----9----9----9----9----9----9----9----|-%----7----7----7----7----6--------------|
A|-7----7----7----7----7----7----7----7----|-------------------------------7----5----|
E|-0----0----0----0----0----0----0----0----|-----------------------------------------|

E|---------|-----------------------------------------|---------|-----------------------------------------|
B|---------|-----------------------------------------|---------|-----------------------------------------|
G|-7-------|-7---------------------------------------|---------|-----------------------------------------|
D|-7-------|-7----7----7----7----7----6--------------|---------|------7----7----7----7----6--------------|
A|-5-------|-5-----------------------------7----5----|-5-------|-5-----------------------------7----7----|
E|---------|-----------------------------------------|---------|-----------------------------------------|

E|---------|-----------------------------------------|---------|---------|-1-------|
B|---------|-----------------------------------------|---------|---------|-3-------|
G|-9-------|-9---------------------------------------|---------|---------|-2-------|
D|-9-------|-9----7----7----7----7----6--------------|---------|---------|-0-------|
A|-7-------|-7-----------------------------7----7----|-7-------|-7-------|---------|
E|---------|-----------------------------------------|---------|---------|---------|

E|-1-------|-3-------|-3-------|-5-------|-5-------|---------|---------|-1-------|-3-------|
B|-3-------|-3-------|-3-------|-3-------|-3-------|---------|---------|-3-------|-3-------|
G|-2-------|-5-------|-5-------|-3-------|-3-------|-3-------|-5-------|-2-------|-3-------|
D|-0-------|-5-------|-5-------|-5-------|-5-------|-3-------|-5-------|-0-------|-0-------|
A|---------|-3-------|-3-------|---------|---------|-1-------|-3-------|-0-------|-1-------|
E|---------|---------|---------|---------|---------|---------|---------|---------|---------|

E|-3-------|-1-------|-1-------|-3-------|-3-------|-3-------|-3-------|-1-------|---------|
B|-5-------|-3-------|-3-------|-3-------|-5-------|-5-------|-4-------|-1-------|-3-------|
G|-5-------|-2-------|-2-------|-3-------|-5-------|-5-------|-5-------|-1-------|-3-------|
D|-0-------|-0-------|-0-------|-0-------|-0-------|-0-------|-5-------|---------|-3-------|
A|---------|-0-------|-0-------|-1-------|---------|---------|---------|---------|-3-------|
E|---------|---------|---------|---------|---------|---------|---------|---------|---------|

E|-3-------|-3-------|-1-------|---------|--------|--------|--------------------|---------------|
B|-4-------|-4-------|-1-------|-3-------|-3------|--------|--------------------|---------------|
G|-5-------|-5-------|-1-------|-3-------|-3------|-%------|-7------7----7------|-5------7------|
D|-5-------|-5-------|---------|-3-------|-3------|-%------|-7------8----8------|-5------7------|
A|---------|---------|---------|-3-------|-3------|--------|-5------5----5------|-3------5------|
E|---------|---------|---------|---------|--------|--------|--------------------|---------------|

E|--------------------|---------|--------------------|---------------|--------------------|
B|-7------------------|---------|-7------------------|---------------|--------------------|
G|-7------7------5----|-7-------|-7------7----7------|-5------7------|-7------7------5----|
D|-7------8------5----|-7-------|-7------8----8------|-5------7------|-7------8------5----|
A|-5------5------3----|-5-------|-5------5----5------|-3------5------|-5------5------3----|
E|--------------------|---------|--------------------|---------------|--------------------|

E|---------|--------------------|---------------|--------------------|--------------------|
B|---------|--------------------|-3-------------|--------------------|--------------------|
G|-7-------|-5------5----5------|-3------5------|-5------5------3----|-3----5------5------|
D|-7-------|-5------6----6------|-3------5------|-5------6------3----|-3----5------5------|
A|-5-------|-3------3----3------|-3------3------|-3------3------1----|-1----3------3------|
E|---------|--------------------|---------------|--------------------|--------------------|

E|--------------------|---------------|---------------------|---------------|-----------------------------------------|
B|--------------------|-3-------------|---------------------|---------------|-----------------------------------------|
G|-5------5----5------|-3------5------|-5------5------3-----|-%-------%-----|-7---------------------------------------|
D|-5------6----6------|-3------5------|-5------6------3-----|-%-------%-----|-7---------------------------------------|
A|-3------3----3------|-3------3------|-3------3------1-----|---------------|-5----5----5----5----5----5----5----5----|
E|--------------------|---------------|---------------------|---------------|-----------------------------------------|

E|-----------------------------------------|-----------------------------------------|
B|-----------------------------------------|-----------------------------------------|
G|-----------------------------------------|-----------------------------------------|
D|-----------------------------------------|-----------------------------------------|
A|-5----5----5----5----5----5----5----5----|-5----5----5----5----5----5----5----5----|
E|-----------------------------------------|-----------------------------------------|

E|-----------------------------------------|-----------------------------------------|
B|-----------------------------------------|-----------------------------------------|
G|-----------------------------------------|-----------------------------------------|
D|-----------------------------------------|-----------------------------------------|
A|-5----5----5----5----5----5----5----5----|-5----5----5----5----5----5----5----5----|
E|-----------------------------------------|-----------------------------------------|

E|-----------------------------------------|-----------------------------------------|
B|-----------------------------------------|-----------------------------------------|
G|-7---------------------------------------|-----------------------------------------|
D|-7---------------------------------------|-----------------------------------------|
A|-5----5----5----5----5----5----5----5----|-5----5----5----5----5----5----5----5----|
E|-----------------------------------------|-----------------------------------------|

E|---------|---------|---------|---------|---------|---------|---------|-----------------------------------------|
B|---------|---------|---------|---------|---------|---------|---------|-----------------------------------------|
G|-%-------|-5-------|-5-------|-5-------|-5-------|-7-------|-%-------|-----------------------------------------|
D|-%-------|-5-------|-5-------|-5-------|-5-------|-7-------|-%-------|-5----4---------5----4---------5----4----|
A|---------|-3-------|-3-------|-3-------|-3-------|-5-------|---------|-----------5--------------5--------------|
E|---------|---------|---------|---------|---------|---------|---------|-----------------------------------------|

E|-------------------------------------|------------------------|
B|-------------------------------------|------------------------|
G|-------------------------------------|-----------------%------|
D|------5----4---------5----4----------|-----------------%------|
A|-5--------------5--------------5-----|-5----5----5------------|
E|-------------------------------------|------------------------|
Iron Maiden - The Clairvoyant
Iron Maiden - The Clairvoyant.gp3