Iron Maiden - The Clansman

Iron Maiden



Title: The Clansman
Album: 
Artist: 
Author: IRON MAIDEN

Track 1: Lead Guitar
E|-----------------------------|-----------------------------|-----------------------------|
B|-----------------------------|-----------------------------|-----------------------------|
G|-%-----7-----7-----7----5----|-7-----7---------------------|-------7-----7-----7----5----|
D|-%---------------------------|------------10---7-----5-----|-5---------------------------|
A|-----------------------------|-----------------------------|-----------------------------|
E|-----------------------------|-----------------------------|-----------------------------|

E|-------------------------------------|---------|-----------------------------------------|
B|------------5----8----5--------------|---------|----------------12---13---12-------------|
G|-7-----7-------------------7----5----|-14------|-14--------14------------------14---12---|
D|-------------------------------------|---------|------14---------------------------------|
A|-------------------------------------|---------|-----------------------------------------|
E|-------------------------------------|---------|-----------------------------------------|

E|---------|-----------------------------------------|---------|-----------------------------------------|
B|---------|----------------12---13---12-------------|---------|----------------12---13---12-------------|
G|-14------|-14--------14------------------14---12---|-14------|-14--------14------------------14---12---|
D|---------|------14---------------------------------|---------|------14---------------------------------|
A|---------|-----------------------------------------|---------|-----------------------------------------|
E|---------|-----------------------------------------|---------|-----------------------------------------|

E|---------|-------------------------|---------|---------|---------|---------|---------|
B|-15------|-15----13----12----8-----|---------|---------|---------|---------|---------|
G|---------|-------------------------|-14------|-%-------|-%-------|-%-------|-%-------|
D|---------|-------------------------|---------|-%-------|-%-------|-%-------|-%-------|
A|---------|-------------------------|---------|---------|---------|---------|---------|
E|---------|-------------------------|---------|---------|---------|---------|---------|

E|---------|---------|---------|---------|---------|------------------------|---------|
B|---------|---------|---------|---------|---------|-15------15---13---12---|---------|
G|-%-------|-%-------|-%-------|-%-------|-%-------|------------------------|-14------|
D|-%-------|-%-------|-%-------|-%-------|-%-------|------------------------|---------|
A|---------|---------|---------|---------|---------|------------------------|---------|
E|---------|---------|---------|---------|---------|------------------------|---------|

E|------------------------|---------|------------------------|--------------------------|
B|-15------15---13---12---|---------|-15------15---13---12---|--------8-----12----8-----|
G|------------------------|-14------|------------------------|-14-----------------------|
D|------------------------|---------|------------------------|--------------------------|
A|------------------------|---------|------------------------|--------------------------|
E|------------------------|---------|------------------------|--------------------------|

E|---------|---------|---------|---------|---------|---------|---------|---------|---------|
B|-10------|---------|---------|---------|---------|---------|---------|---------|---------|
G|---------|-%-------|-%-------|-%-------|-%-------|-%-------|-%-------|-%-------|-%-------|
D|---------|-%-------|-%-------|-%-------|-%-------|-%-------|-%-------|-%-------|-%-------|
A|---------|---------|---------|---------|---------|---------|---------|---------|---------|
E|---------|---------|---------|---------|---------|---------|---------|---------|---------|

E|---------|------------------------|---------|------------------------|---------|------------------------|
B|---------|-15------15---13---12---|---------|-15------15---13---12---|---------|-15------15---13---12---|
G|-%-------|------------------------|-14------|------------------------|-14------|------------------------|
D|-%-------|------------------------|---------|------------------------|---------|------------------------|
A|---------|------------------------|---------|------------------------|---------|------------------------|
E|---------|------------------------|---------|------------------------|---------|------------------------|

E|--------------------------|---------|---------|-------------------------------------------|
B|--------8-----12----8-----|-10------|---------|-------------------------------------------|
G|-14-----------------------|---------|-%-------|-------------------------------------------|
D|--------------------------|---------|-%-------|-9--------------------9--------------------|
A|--------------------------|---------|---------|-7-----7----7----7----7-----7----7----7----|
E|--------------------------|---------|---------|-------------------------------------------|

E|-------------------------------------------|-------------------------------------------|
B|-------------------------------------------|-------------------------------------------|
G|-------------------------------------------|-------------------------------------------|
D|-5-----------------------------------------|-2--------------------2--------------------|
A|-3-----3----3----3----5--------------------|-0-----0----0----0----0-----0----0----0----|
E|----------------------3-----3----3----3----|-------------------------------------------|

E|-------------------------------------------|-------------------------------------------|
B|-------------------------------------------|-------------------------------------------|
G|-------------------------------------------|-9--------------------9--------------------|
D|-5--------------------7--------------------|-7-----7----7----7----7-----7----7----7----|
A|-3-----3----3----3----5-----5----5----5----|-------------------------------------------|
E|-------------------------------------------|-------------------------------------------|

E|-------------------------------------------|-------------------------------------------|
B|-------------------------------------------|-------------------------------------------|
G|-9--------------------9--------------------|-9--------------------9--------------------|
D|-7-----7----7----7----7-----7----7----7----|-7-----7----7----7----7-----7----7----7----|
A|-------------------------------------------|-------------------------------------------|
E|-------------------------------------------|-------------------------------------------|

E|-------------------------------------------|-------------------------------------------|
B|-------------------------------------------|-------------------------------------------|
G|-9--------------------9--------------------|-7--------------------7--------------------|
D|-7-----7----7----7----7-----7----7----7----|-5-----5----5----5----5-----5----5----5----|
A|-------------------------------------------|-------------------------------------------|
E|-------------------------------------------|-------------------------------------------|

E|-------------------------------------------|-------------------------------------------|
B|-------------------------------------------|-------------------------------------------|
G|-------------------------------------------|-9--------------------9--------------------|
D|-7--------------------7--------------------|-7-----7----7----7----7-----7----7----7----|
A|-5-----5----5----5----5-----5----5----5----|-------------------------------------------|
E|-------------------------------------------|-------------------------------------------|

E|-------------------------------------------|-------------------------------------------|
B|-------------------------------------------|-------------------------------------------|
G|-9--------------------9--------------------|-7--------------------7--------------------|
D|-7-----7----7----7----7-----7----7----7----|-5-----5----5----5----5-----5----5----5----|
A|-------------------------------------------|-------------------------------------------|
E|-------------------------------------------|-------------------------------------------|

E|-------------------------------------------|-------------------------------------------|
B|-------------------------------------------|-------------------------------------------|
G|-------------------------------------------|-5--------------------5--------------------|
D|-7--------------------7--------------------|-3-----3----3----3----3-----3----3----3----|
A|-5-----5----5----5----5-----5----5----5----|-------------------------------------------|
E|-------------------------------------------|-------------------------------------------|

E|-------------------------------------------|-------------------------------------------|
B|-------------------------------------------|-------------------------------------------|
G|-------------------------------------------|-7--------------------7--------------------|
D|-5--------------------5--------------------|-5-----5----5----5----5-----5----5----5----|
A|-3-----3----3----3----3-----3----3----3----|-------------------------------------------|
E|-------------------------------------------|-------------------------------------------|

E|-------------------------------------------|-------------------------------------------|
B|-------------------------------------------|-------------------------------------------|
G|-------------------------------------------|-9--------------------9--------------------|
D|-7--------------------7--------------------|-7-----7----7----7----7-----7----7----7----|
A|-5-----5----5----5----5-----5----5----5----|-------------------------------------------|
E|-------------------------------------------|-------------------------------------------|

E|-------------------------------------------|-------------------------------------------|
B|-------------------------------------------|-------------------------------------------|
G|-9--------------------9--------------------|-------------------------------------------|
D|-7-----7----7----7----7-----7----7----7----|-9--------------------9--------------------|
A|-------------------------------------------|-7-----7----7----7----7-----7----7----7----|
E|-------------------------------------------|-------------------------------------------|

E|-------------------------------------------|-------------------------------------------|
B|-------------------------------------------|-------------------------------------------|
G|-------------------------------------------|-------------------------------------------|
D|-5-----------------------------------------|-2--------------------2--------------------|
A|-3-----3----3----3----5--------------------|-0-----0----0----0----0-----0----0----0----|
E|----------------------3-----3----3----3----|-------------------------------------------|

E|-------------------------------------------|--------------------------------------------|
B|---------------------------------10---12---|-13----12----10----8---10----10---10---12---|
G|-------------------------------------------|--------------------------------------------|
D|-5--------------------7-----7--------------|--------------------------------------------|
A|-3-----3----3----3----5-----5--------------|--------------------------------------------|
E|-------------------------------------------|--------------------------------------------|

E|--------------------------------------------|-------------------------------------|
B|-13----12----10----8---10----10---10---12---|-13----12----10----8-----10----13----|
G|--------------------------------------------|-------------------------------------|
D|--------------------------------------------|-------------------------------------|
A|--------------------------------------------|-------------------------------------|
E|--------------------------------------------|-------------------------------------|

E|-----------------------------|--------------------------------------------|--------------------------------------------|
B|-10----10-----10---10---12---|-13----12----10----8---10----10---10---12---|-13----12----10----8---10----10---10---12---|
G|-----------------------------|--------------------------------------------|--------------------------------------------|
D|-----------------------------|--------------------------------------------|--------------------------------------------|
A|-----------------------------|--------------------------------------------|--------------------------------------------|
E|-----------------------------|--------------------------------------------|--------------------------------------------|

E|-------------------------------------|-----------------------------|-------------------------------------|
B|-13----12----10----8-----10----13----|-10----10-----10---10---12---|-13----12----10----8-----10----13----|
G|-------------------------------------|-----------------------------|-------------------------------------|
D|-------------------------------------|-----------------------------|-------------------------------------|
A|-------------------------------------|-----------------------------|-------------------------------------|
E|-------------------------------------|-----------------------------|-------------------------------------|

E|---------|---------|------------------------|-----------------------------|---------|
B|-10------|-10------|------------------------|-----------------------------|---------|
G|---------|---------|-9-------9----9----11---|-12----------------7----9----|-7-------|
D|---------|---------|------------------------|--------10----10-------------|---------|
A|---------|---------|------------------------|-----------------------------|---------|
E|---------|---------|------------------------|-----------------------------|---------|

E|---------|------------------------|-----------------------------|---------|---------|
B|---------|------------------------|-----------------------------|---------|---------|
G|-7-------|-5-------5----14---12---|-12-----7-----7----9----10---|-9-------|-9-------|
D|---------|------------------------|-----------------------------|---------|---------|
A|---------|------------------------|-----------------------------|---------|---------|
E|---------|------------------------|-----------------------------|---------|---------|

E|-17---12--------12-------------------------------------------|----------------------------------------------------|
B|-----------15--------15---12---15---12--------12--------12---|--------------------------12---15----15---13---12---|
G|-----------------------------------------14--------14--------|-14---12--------12---14-----------------------------|
D|-------------------------------------------------------------|-----------14---------------------------------------|
A|-------------------------------------------------------------|----------------------------------------------------|
E|-------------------------------------------------------------|----------------------------------------------------|

E|-------------------------------------------------|------------------------|-15----15---14---12---------12----14----|
B|-13---12--------12-------------------------------|------------------------|----------------------15----------------|
G|-----------14--------14---12---11----12----11----|------------------------|----------------------------------------|
D|-------------------------------------------------|-14---14---12---12------|----------------------------------------|
A|-------------------------------------------------|------------------------|----------------------------------------|
E|-------------------------------------------------|------------------------|----------------------------------------|

E|-15----17----15----17----17----15----|-14----15----14----------------------|---------|
B|-------------------------------------|-------------------15----17----15----|-17------|
G|-------------------------------------|-------------------------------------|---------|
D|-------------------------------------|-------------------------------------|---------|
A|-------------------------------------|-------------------------------------|---------|
E|-------------------------------------|-------------------------------------|---------|

E|-------12--------12---15----15---14---12---|------12-----------------------------------------------------|
B|------------15-----------------------------|-15--------15---13---12--------12----------------------------|
G|-14----------------------------------------|--------------------------14--------14---12--------12---14---|
D|-------------------------------------------|----------------------------------------------14-------------|
A|-------------------------------------------|-------------------------------------------------------------|
E|-------------------------------------------|-------------------------------------------------------------|

E|----------------------------------------|---------|-------------------------------------------------------------|
B|-12-------------------------------------|---------|-------------------------------------------------------------|
G|------14---12---------14----14----14----|-14------|-14---14---14---12---11---12---11---12---11--------11--------|
D|----------------14----------------------|---------|----------------------------------------------14--------14---|
A|----------------------------------------|---------|-------------------------------------------------------------|
E|----------------------------------------|---------|-------------------------------------------------------------|

E|-------------------------------------------------------------|-------------------------------------------------------------|
B|-------------------------------------------------------------|-------------------------------------------------------------|
G|-------------------------------------------------------------|----------------%---------%----12---%---------%----14---14---|
D|-12--------12---------------------------------12-------------|-12---14---14---%----14---%---------%----14---%--------------|
A|------14--------14---13---12--------12---14--------12---14---|-------------------------------------------------------------|
E|-------------------------------15----------------------------|-------------------------------------------------------------|

E|--------------------------------------|---------12---14---15---|-15---14---12---15---14---12---------------------------------|
B|-------------------------------15-----|-15---------------------|-------------------------------15---13---12---15---13---12---|
G|-12---12-------------12---12----------|------------------------|-------------------------------------------------------------|
D|-----------14---14--------------------|------------------------|-------------------------------------------------------------|
A|--------------------------------------|------------------------|-------------------------------------------------------------|
E|--------------------------------------|------------------------|-------------------------------------------------------------|

E|--------------------------------------|-------------------------------------------------------------|
B|------12------------------------------|-------------------------------------------------------------|
G|-14--------14---12--------12---14-----|-12---14---12--------12--------------------------------------|
D|---------------------14---------------|----------------14--------14---12--------12---14---14---12---|
A|--------------------------------------|------------------------------------14-----------------------|
E|--------------------------------------|-------------------------------------------------------------|

E|-------------------------------------------------------------|------12---14---15----17-----|
B|------------------------------------12--------12---14---15---|-15--------------------------|
G|------12--------12---14---12---14--------14------------------|-----------------------------|
D|-14--------14------------------------------------------------|-----------------------------|
A|-------------------------------------------------------------|-----------------------------|
E|-------------------------------------------------------------|-----------------------------|

E|-15---15---15---14---14---14---15---15---15---14---14---14---|-17----15----14-----------|
B|-------------------------------------------------------------|-------------------15-----|
G|-------------------------------------------------------------|--------------------------|
D|-------------------------------------------------------------|--------------------------|
A|-------------------------------------------------------------|--------------------------|
E|-------------------------------------------------------------|--------------------------|

E|---------|---------|---------|---------|---------|---------|---------|---------|------------------------|
B|---------|---------|---------|---------|---------|---------|---------|---------|-15------15---13---12---|
G|-%-------|-%-------|-%-------|-%-------|-%-------|-%-------|-%-------|-%-------|------------------------|
D|-%-------|-%-------|-%-------|-%-------|-%-------|-%-------|-%-------|-%-------|------------------------|
A|---------|---------|---------|---------|---------|---------|---------|---------|------------------------|
E|---------|---------|---------|---------|---------|---------|---------|---------|------------------------|

E|---------|------------------------|---------|------------------------|--------------------------|
B|---------|-15------15---13---12---|---------|-15------15---13---12---|--------8-----12----8-----|
G|-14------|------------------------|-14------|------------------------|-14-----------------------|
D|---------|------------------------|---------|------------------------|--------------------------|
A|---------|------------------------|---------|------------------------|--------------------------|
E|---------|------------------------|---------|------------------------|--------------------------|

E|---------|---------|---------|---------|---------|---------|---------|---------|---------|
B|-10------|---------|---------|---------|---------|---------|---------|---------|---------|
G|---------|-%-------|-%-------|-%-------|-%-------|-%-------|-%-------|-%-------|-%-------|
D|---------|-%-------|-%-------|-%-------|-%-------|-%-------|-%-------|-%-------|-%-------|
A|---------|---------|---------|---------|---------|---------|---------|---------|---------|
E|---------|---------|---------|---------|---------|---------|---------|---------|---------|

E|---------|---------|---------|---------|---------|-------------------------------------------|
B|---------|---------|---------|---------|---------|-------------------------------------------|
G|-%-------|-%-------|-%-------|-%-------|-%-------|-9--------------------9--------------------|
D|-%-------|-%-------|-%-------|-%-------|-%-------|-7-----7----7----7----7-----7----7----7----|
A|---------|---------|---------|---------|---------|-------------------------------------------|
E|---------|---------|---------|---------|---------|-------------------------------------------|

E|-------------------------------------------|-------------------------------------------|
B|-------------------------------------------|-------------------------------------------|
G|-9--------------------9--------------------|-9--------------------9--------------------|
D|-7-----7----7----7----7-----7----7----7----|-7-----7----7----7----7-----7----7----7----|
A|-------------------------------------------|-------------------------------------------|
E|-------------------------------------------|-------------------------------------------|

E|-------------------------------------------|-------------------------------------------|
B|-------------------------------------------|-------------------------------------------|
G|-9--------------------9--------------------|-7--------------------7--------------------|
D|-7-----7----7----7----7-----7----7----7----|-5-----5----5----5----5-----5----5----5----|
A|-------------------------------------------|-------------------------------------------|
E|-------------------------------------------|-------------------------------------------|

E|-------------------------------------------|-------------------------------------------|
B|-------------------------------------------|-------------------------------------------|
G|-------------------------------------------|-9--------------------9--------------------|
D|-7--------------------7--------------------|-7-----7----7----7----7-----7----7----7----|
A|-5-----5----5----5----5-----5----5----5----|-------------------------------------------|
E|-------------------------------------------|-------------------------------------------|

E|-------------------------------------------|-------------------------------------------|
B|-------------------------------------------|-------------------------------------------|
G|-9--------------------9--------------------|-5--------------------5--------------------|
D|-7-----7----7----7----7-----7----7----7----|-3-----3----3----3----3-----3----3----3----|
A|-------------------------------------------|-------------------------------------------|
E|-------------------------------------------|-------------------------------------------|

E|-------------------------------------------|-------------------------------------------|
B|-------------------------------------------|-------------------------------------------|
G|-------------------------------------------|-9--------------------9--------------------|
D|-5--------------------5--------------------|-7-----7----7----7----7-----7----7----7----|
A|-3-----3----3----3----3-----3----3----3----|-------------------------------------------|
E|-------------------------------------------|-------------------------------------------|

E|-------------------------------------------|------------------------------------|
B|--------------------------------------7----|-8---7-------------------------7----|
G|-9--------------------9-----9----9---------|---------9----9------9----9---------|
D|-7-----7----7----7----7-----7--------------|------------------------------------|
A|-------------------------------------------|------------------------------------|
E|-------------------------------------------|------------------------------------|

E|--------------------7-----7--------------|------------------------------------|-----------------------------------------|
B|-8---7------------------------------7----|-8---7------------------------------|-8---7------------------------------7----|
G|---------9----9----------------9---------|---------9----9------9----9----11---|---------9----9-----7-----7----9---------|
D|-----------------------------------------|------------------------------------|-----------------------------------------|
A|-----------------------------------------|------------------------------------|-----------------------------------------|
E|-----------------------------------------|------------------------------------|-----------------------------------------|

E|-12---0----0----7----0----0----8----0----0----5----0----0----|-7----0----0----3----0----0----5----0----0----3----2----0----|
B|-------------------------------------------------------------|-------------------------------------------------------------|
G|-------------------------------------------------------------|-------------------------------------------------------------|
D|-------------------------------------------------------------|-------------------------------------------------------------|
A|-------------------------------------------------------------|-------------------------------------------------------------|
E|-------------------------------------------------------------|-------------------------------------------------------------|

E|-12---0----0----7----0----0----8----0----0----5----0----0----|-7----0----0----3----0----0----5----0----0----3----2----0----|
B|-------------------------------------------------------------|-------------------------------------------------------------|
G|-------------------------------------------------------------|-------------------------------------------------------------|
D|-------------------------------------------------------------|-------------------------------------------------------------|
A|-------------------------------------------------------------|-------------------------------------------------------------|
E|-------------------------------------------------------------|-------------------------------------------------------------|

E|-------------------------------------------|-------------------------------------------|
B|-------------------------------------------|-------------------------------------------|
G|-9--------------------9--------------------|-9--------------------9--------------------|
D|-7-----7----7----7----7-----7----7----7----|-7-----7----7----7----7-----7----7----7----|
A|-------------------------------------------|-------------------------------------------|
E|-------------------------------------------|-------------------------------------------|

E|-------------------------------------------|-------------------------------------------|
B|-------------------------------------------|-------------------------------------------|
G|-9--------------------9--------------------|-9--------------------9--------------------|
D|-7-----7----7----7----7-----7----7----7----|-7-----7----7----7----7-----7----7----7----|
A|-------------------------------------------|-------------------------------------------|
E|-------------------------------------------|-------------------------------------------|

E|-------------------------------------------|-------------------------------------------|
B|-------------------------------------------|-------------------------------------------|
G|-7--------------------7--------------------|-------------------------------------------|
D|-5-----5----5----5----5-----5----5----5----|-7--------------------7--------------------|
A|-------------------------------------------|-5-----5----5----5----5-----5----5----5----|
E|-------------------------------------------|-------------------------------------------|

E|-------------------------------------------|-------------------------------------------|
B|-------------------------------------------|-------------------------------------------|
G|-9--------------------9--------------------|-9--------------------9--------------------|
D|-7-----7----7----7----7-----7----7----7----|-7-----7----7----7----7-----7----7----7----|
A|-------------------------------------------|-------------------------------------------|
E|-------------------------------------------|-------------------------------------------|

E|-------------------------------------------|-------------------------------------------|
B|-------------------------------------------|-------------------------------------------|
G|-7--------------------7--------------------|-------------------------------------------|
D|-5-----5----5----5----5-----5----5----5----|-7--------------------7--------------------|
A|-------------------------------------------|-5-----5----5----5----5-----5----5----5----|
E|-------------------------------------------|-------------------------------------------|

E|-------------------------------------------|-------------------------------------------|
B|-------------------------------------------|-------------------------------------------|
G|-5--------------------5--------------------|-------------------------------------------|
D|-3-----3----3----3----3-----3----3----3----|-5--------------------5--------------------|
A|-------------------------------------------|-3-----3----3----3----3-----3----3----3----|
E|-------------------------------------------|-------------------------------------------|

E|-------------------------------------------|-------------------------------------------|
B|-------------------------------------------|-------------------------------------------|
G|-7--------------------7--------------------|-------------------------------------------|
D|-5-----5----5----5----5-----5----5----5----|-7--------------------7--------------------|
A|-------------------------------------------|-5-----5----5----5----5-----5----5----5----|
E|-------------------------------------------|-------------------------------------------|

E|-------------------------------------------|-------------------------------------------|
B|-------------------------------------------|-------------------------------------------|
G|-9--------------------9--------------------|-9--------------------9--------------------|
D|-7-----7----7----7----7-----7----7----7----|-7-----7----7----7----7-----7----7----7----|
A|-------------------------------------------|-------------------------------------------|
E|-------------------------------------------|-------------------------------------------|

E|-12---0----0----7----0----0----8----0----0----5----0----0----|-7----0----0----3----0----0----5----0----0----3----2----0----|
B|-------------------------------------------------------------|-------------------------------------------------------------|
G|-------------------------------------------------------------|-------------------------------------------------------------|
D|-------------------------------------------------------------|-------------------------------------------------------------|
A|-------------------------------------------------------------|-------------------------------------------------------------|
E|-------------------------------------------------------------|-------------------------------------------------------------|

E|-12---0----0----7----0----0----8----0----0----5----0----0----|-7----0----0----3----0----0----5----0----0----3----2----0----|
B|-------------------------------------------------------------|-------------------------------------------------------------|
G|-------------------------------------------------------------|-------------------------------------------------------------|
D|-------------------------------------------------------------|-------------------------------------------------------------|
A|-------------------------------------------------------------|-------------------------------------------------------------|
E|-------------------------------------------------------------|-------------------------------------------------------------|

E|---------|---------|---------|---------|---------|---------|---------|---------|------------------------|
B|---------|---------|---------|---------|---------|---------|---------|---------|-15------15---13---12---|
G|-%-------|-%-------|-%-------|-%-------|-%-------|-%-------|-%-------|-%-------|------------------------|
D|-%-------|-%-------|-%-------|-%-------|-%-------|-%-------|-%-------|-%-------|------------------------|
A|---------|---------|---------|---------|---------|---------|---------|---------|------------------------|
E|---------|---------|---------|---------|---------|---------|---------|---------|------------------------|

E|---------|------------------------|---------|------------------------|--------------------------|
B|---------|-15------15---13---12---|---------|-15------15---13---12---|--------8-----12----8-----|
G|-14------|------------------------|-14------|------------------------|-14-----------------------|
D|---------|------------------------|---------|------------------------|--------------------------|
A|---------|------------------------|---------|------------------------|--------------------------|
E|---------|------------------------|---------|------------------------|--------------------------|

E|---------|---------|---------|
B|-10------|---------|---------|
G|---------|-%-------|-%-------|
D|---------|-%-------|-%-------|
A|---------|---------|---------|
E|---------|---------|---------|
Iron Maiden - The Clansman
Iron Maiden - The Clansman.gp3