Iron Maiden - The Clansman (Intro)

Iron Maiden



Title: The Clansman
Album: rock in rio
Artist: Iron Maiden
Author: 

Track 1: Steve Harris
G|-------9-----------9-----|-------9-----------9-----|-------7-----------7-----|-------7-----------7-----|
D|-7-----------7-----------|-7-----------7-----------|-5-----------5-----------|-5-----------5-----------|
A|-------------------------|-------------------------|-------------------------|-------------------------|
E|-------------------------|-------------------------|-------------------------|-------------------------|

G|-------------------------|-------------------------|-------5-----------5-----|-------7-----------7-----|
D|-------7-----------7-----|-------7-----------7-----|-3-----------3-----------|-5-----------5-----------|
A|-5-----------5-----------|-5-----------5-----------|-------------------------|-------------------------|
E|-------------------------|-------------------------|-------------------------|-------------------------|

G|-------9-----------9-----|-------9-----------9-----|-------5-----------5-----|-------5-----------5-----|
D|-7-----------7-----------|-7-----------7-----------|-3-----------3-----------|-3-----------3-----------|
A|-------------------------|-------------------------|-------------------------|-------------------------|
E|-------------------------|-------------------------|-------------------------|-------------------------|

G|-------7-----------7-----|-------7-----------7-----|-------------------------|-------------------------|
D|-5-----------5-----------|-5-----------5-----------|-------7-----------7-----|-------7-----------7-----|
A|-------------------------|-------------------------|-5-----------5-----------|-5-----------5-----------|
E|-------------------------|-------------------------|-------------------------|-------------------------|

G|-------5-----------5-----|-------5-----------5-----|-------------------------|-------------------------|
D|-3-----------3-----------|-3-----------3-----------|-------5-----------5-----|-------5-----------5-----|
A|-------------------------|-------------------------|-3-----------3-----------|-3-----------3-----------|
E|-------------------------|-------------------------|-------------------------|-------------------------|

G|-------7-----------7-----|-------7-----------7-----|-------------------------|-------------------------|
D|-5-----------5-----------|-5-----------5-----------|-------7-----------7-----|-------7-----------7-----|
A|-------------------------|-------------------------|-5-----------5-----------|-5-----------5-----------|
E|-------------------------|-------------------------|-------------------------|-------------------------|
Iron Maiden - The Clansman (Intro)
Iron Maiden - The Clansman (Intro).gp3