Iron Maiden - The Clansman (Solo)

Iron Maiden



Title: The Clansman (Solo)
Album: 
Artist: Iron Maiden
Author: Iron Maiden

Track 1: Dave (Guitar 1)
E|-17---12--------12-------------------------------------------|----------------------------------------------------|
B|-----------15--------15---12---15---12--------12--------12---|--------------------------12---15----15---13---12---|
G|-----------------------------------------14--------14--------|-14---12--------12---14-----------------------------|
D|-------------------------------------------------------------|-----------14---------------------------------------|
A|-------------------------------------------------------------|----------------------------------------------------|
E|-------------------------------------------------------------|----------------------------------------------------|

E|-------------------------------------------------|------------------------|-15----15---14---12---------12----14----|
B|-13---12--------12-------------------------------|------------------------|----------------------15----------------|
G|-----------14--------14---12---11----12----11----|------------------------|----------------------------------------|
D|-------------------------------------------------|-14---14---12---12------|----------------------------------------|
A|-------------------------------------------------|------------------------|----------------------------------------|
E|-------------------------------------------------|------------------------|----------------------------------------|

E|-15----17----15----17----17----15----|-14----15----14----------------------|---------|
B|-------------------------------------|-------------------15----17----15----|-17------|
G|-------------------------------------|-------------------------------------|---------|
D|-------------------------------------|-------------------------------------|---------|
A|-------------------------------------|-------------------------------------|---------|
E|-------------------------------------|-------------------------------------|---------|

E|-------12--------12---15----15---14---12---|------12-----------------------------------------------------|
B|------------15-----------------------------|-15--------15---13---12--------12----------------------------|
G|-14----------------------------------------|--------------------------14--------14---12--------12---14---|
D|-------------------------------------------|----------------------------------------------14-------------|
A|-------------------------------------------|-------------------------------------------------------------|
E|-------------------------------------------|-------------------------------------------------------------|

E|----------------------------------------|---------|-------------------------------------------------------------|
B|-12-------------------------------------|---------|-------------------------------------------------------------|
G|------14---12---------14----14----14----|-14------|-14---14---14---12---11---12---11---12---11--------11--------|
D|----------------14----------------------|---------|----------------------------------------------14--------14---|
A|----------------------------------------|---------|-------------------------------------------------------------|
E|----------------------------------------|---------|-------------------------------------------------------------|

E|-------------------------------------------------------------|-------------------------------------------------------------|
B|-------------------------------------------------------------|-------------------------------------------------------------|
G|-------------------------------------------------------------|----------------%---------%----12---%---------%----14---14---|
D|-12--------12---------------------------------12-------------|-12---14---14---%----14---%---------%----14---%--------------|
A|------14--------14---13---12--------12---14--------12---14---|-------------------------------------------------------------|
E|-------------------------------15----------------------------|-------------------------------------------------------------|

E|--------------------------------------|---------|---------------|---------|---------------|
B|-------------------------------15-----|---------|---------------|---------|---------------|
G|-12---12-------------12---12----------|---------|---------------|---------|---------------|
D|-----------14---14--------------------|-9-------|-5-------------|-9-------|-5-------------|
A|--------------------------------------|-7-------|-3------5------|-7-------|-3------5------|
E|--------------------------------------|---------|--------3------|---------|--------3------|

E|---------|---------------|---------|---------------|
B|---------|---------------|---------|---------------|
G|---------|---------------|---------|---------------|
D|-9-------|-5-------------|---------|-5------7------|
A|-7-------|-3------5------|-7-------|-3------5------|
E|---------|--------3------|-5-------|---------------|
Iron Maiden - The Clansman (Solo)
Iron Maiden - The Clansman (Solo).gp3