Iron Maiden - The Duellists

Iron Maiden - The Duellists

Iron Maiden



Title: The Duellists (Interludes + Solos)
Album: Powerslave
Artist: Iron Maiden
Author: Iron Maiden

Track 1: Dave (Guitar)
E|-------------------------------------------------------------|-------------------------------------------------------------|
B|-15---13---12---15---13---12---15---13---12---15---13---12---|-15---13---12---15---13---12---15---13---12---15---13---12---|
G|-------------------------------------------------------------|-------------------------------------------------------------|
D|-------------------------------------------------------------|-------------------------------------------------------------|
A|-------------------------------------------------------------|-------------------------------------------------------------|
E|-------------------------------------------------------------|-------------------------------------------------------------|

E|-------------------------------------------------------------|-------------------------------------------------------------|
B|-13---12---10---13---12---10---13---12---10---13---12---10---|-13---12---10---13---12---10---13---12---10---13---12---10---|
G|-------------------------------------------------------------|-------------------------------------------------------------|
D|-------------------------------------------------------------|-------------------------------------------------------------|
A|-------------------------------------------------------------|-------------------------------------------------------------|
E|-------------------------------------------------------------|-------------------------------------------------------------|

E|-------------------------------------------------------------|-------------------------------------------------------------|
B|-15---13---12--------12---13---15---13---12--------12---13---|-15---13---12--------12---13---15---13---12--------12---13---|
G|----------------14----------------------------14-------------|----------------14----------------------------14-------------|
D|-------------------------------------------------------------|-------------------------------------------------------------|
A|-------------------------------------------------------------|-------------------------------------------------------------|
E|-------------------------------------------------------------|-------------------------------------------------------------|

E|-------------------------------------------------------------|-------------------------------------------------------------|
B|-15---13---12---15---13---12---15---13---12---15---13---12---|-15---13---12---15---13---12---15---13---12---15---13---12---|
G|-------------------------------------------------------------|-------------------------------------------------------------|
D|-------------------------------------------------------------|-------------------------------------------------------------|
A|-------------------------------------------------------------|-------------------------------------------------------------|
E|-------------------------------------------------------------|-------------------------------------------------------------|

E|-------------------------------------------------------------|-------------------------------------------------------------|
B|-15---13---12---15---13---12---15---13---12---15---13---12---|-15---13---12---15---13---12---15---13---12---15---13---12---|
G|-------------------------------------------------------------|-------------------------------------------------------------|
D|-------------------------------------------------------------|-------------------------------------------------------------|
A|-------------------------------------------------------------|-------------------------------------------------------------|
E|-------------------------------------------------------------|-------------------------------------------------------------|

E|-------------------------------------------------------------|-------------------------------------------------------------|
B|-13---12---10---13---12---10---13---12---10---13---12---10---|-13---12---10---13---12---10---13---12---10---13---12---10---|
G|-------------------------------------------------------------|-------------------------------------------------------------|
D|-------------------------------------------------------------|-------------------------------------------------------------|
A|-------------------------------------------------------------|-------------------------------------------------------------|
E|-------------------------------------------------------------|-------------------------------------------------------------|

E|-------------------------------------------------------------|-------------------------------------------------------------|
B|-15---13---12--------12---13---15---13---12--------12---13---|-15---13---12--------12---13---15---13---12--------12---13---|
G|----------------14----------------------------14-------------|----------------14----------------------------14-------------|
D|-------------------------------------------------------------|-------------------------------------------------------------|
A|-------------------------------------------------------------|-------------------------------------------------------------|
E|-------------------------------------------------------------|-------------------------------------------------------------|

E|-------------------------------------------------------------|-------------------------------------------------------------|
B|-15---13---12---15---13---12---15---13---12---15---13---12---|-15---13---12---15---13---12---15---13---12---15---13---12---|
G|-------------------------------------------------------------|-------------------------------------------------------------|
D|-------------------------------------------------------------|-------------------------------------------------------------|
A|-------------------------------------------------------------|-------------------------------------------------------------|
E|-------------------------------------------------------------|-------------------------------------------------------------|

E|---------|------------------------|---------|------------------------|------------------------|
B|-8-------|-8------------7----8----|-7-------|-7------------5----7----|-5------------3----5----|
G|---------|---------%--------------|---------|---------%--------------|---------%--------------|
D|---------|---------%--------------|---------|---------%--------------|---------%--------------|
A|---------|------------------------|---------|------------------------|------------------------|
E|---------|------------------------|---------|------------------------|------------------------|

E|--------------------|------------------------|---------|---------|------------------------|
B|-3------------------|------------------------|---------|-8-------|-8------------7----8----|
G|--------4-----2-----|-4----2-----------------|---------|---------|---------%--------------|
D|--------------------|-----------5----5-------|-5-------|---------|---------%--------------|
A|--------------------|------------------------|---------|---------|------------------------|
E|--------------------|------------------------|---------|---------|------------------------|

E|---------|------------------------|------------------------|--------------------|
B|-7-------|-7------------5----7----|-5------------3----5----|-3------------------|
G|---------|---------%--------------|---------%--------------|--------4-----2-----|
D|---------|---------%--------------|---------%--------------|--------------------|
A|---------|------------------------|------------------------|--------------------|
E|---------|------------------------|------------------------|--------------------|

E|------------------------|--------------------------------------|---------------|------------------------------------------------------|
B|------------------------|------------------13---13---13---12---|-12------------|------------------------------------------------------|
G|-4----2-----------------|--------%----%------------------------|--------14-----|-14----12---14---12---11--12--11--12--11--12--11--9---|
D|-----------5----5-------|-5------%----%------------------------|---------------|------------------------------------------------------|
A|------------------------|--------------------------------------|---------------|------------------------------------------------------|
E|------------------------|--------------------------------------|---------------|------------------------------------------------------|

E|-------------------------------------------------|--------------------|---------------|
B|-------------------------------------------------|--------------------|---------------|
G|-11--9---11--9---7---9---7----14----14---14--12--|--------%-----12----|-12------11----|
D|-------------------------------------------------|-14-----%-----------|---------------|
A|-------------------------------------------------|--------------------|---------------|
E|-------------------------------------------------|--------------------|---------------|

E|-------------------|---------------------------------|---------------------------------12---|
B|---------5---------|-------5----7----7-----7----8----|-8-----8----10---10---------12--------|
G|-11-----------7----|-7----------9----9----------10---|-10---------12---12----14-------------|
D|-------------------|---------------------------------|--------------------------------------|
A|-------------------|---------------------------------|--------------------------------------|
E|-------------------|---------------------------------|--------------------------------------|

E|-15----15---12---------------------------------12---|-15----15---12--------------14---17--------|
B|-----------------12---15---15---12--------12--------|-----------------12---15--------------15---|
G|---------------------------14--------14-------------|-------------------------------------------|
D|----------------------------------------------------|-------------------------------------------|
A|----------------------------------------------------|-------------------------------------------|
E|----------------------------------------------------|-------------------------------------------|

E|-------------------------------------------------------------|--------------------15---|
B|-7----8----7-------------------------------------------------|-------------------------|
G|----------------9----7----5----------------------------------|--------------%----------|
D|-------------------------------9----7----5----4----5----7----|-5------5-----%----------|
A|-------------------------------------------------------------|-------------------------|
E|-------------------------------------------------------------|-------------------------|

E|-17---14---15---12---14--------12----------------------------|--------------------------------------------------------------|
B|--------------------------15--------13---15---12---13--------|-12-----------------------------------------------------------|
G|--------------------------------------------------------14---|------12---14---11---12--------11--12--11------11---12---11---|
D|-------------------------------------------------------------|--------------------------14---------------14-----------------|
A|-------------------------------------------------------------|--------------------------------------------------------------|
E|-------------------------------------------------------------|--------------------------------------------------------------|

E|---------|---------|---------|--------------------|---------|--------10----------------|
B|-15------|-15------|-12------|-12-----10----12----|-12------|-12-----------14----10----|
G|---------|---------|---------|--------------------|---------|--------------------------|
D|---------|---------|---------|--------------------|---------|--------------------------|
A|---------|---------|---------|--------------------|---------|--------------------------|
E|---------|---------|---------|--------------------|---------|--------------------------|

E|---------|--------------------|---------|-10----10----9-----------------------|---------|
B|-12------|-12-----10----12----|-12------|-------------------12----10----8-----|-12------|
G|---------|--------------------|---------|-------------------------------------|---------|
D|---------|--------------------|---------|-------------------------------------|---------|
A|---------|--------------------|---------|-------------------------------------|---------|
E|---------|--------------------|---------|-------------------------------------|---------|

E|--------------------|---------|----------------------------------------|---------|
B|-12-----10----12----|-12------|-10----8-----7--------------------------|---------|
G|--------------------|---------|-------------------9----9----7----7-----|---------|
D|--------------------|---------|----------------------------------------|-4-------|
A|--------------------|---------|----------------------------------------|-2-------|
E|--------------------|---------|----------------------------------------|---------|

E|--------------------|---------|--------------------|---------|--------------------|
B|--------------------|---------|--------------------|---------|--------------------|
G|--------------------|---------|--------------------|---------|--------------------|
D|-4------7-----2-----|-4-------|-4------7-----2-----|-4-------|-4------7-----2-----|
A|-2------5-----0-----|-2-------|-2------5-----0-----|-2-------|-2------5-----0-----|
E|--------------------|---------|--------------------|---------|--------------------|

E|---------|--------------------|---------|--------------------|---------|--------------------|
B|---------|--------------------|---------|--------------------|---------|--------------------|
G|---------|--------------------|---------|--------------------|---------|--------------------|
D|-4-------|-4------2-----2-----|-2-------|-2------7-----2-----|-4-------|-4------7-----2-----|
A|-2-------|-2------0-----0-----|-0-------|-0------5-----0-----|-2-------|-2------5-----0-----|
E|---------|--------------------|---------|--------------------|---------|--------------------|

E|---------|--------------------|---------|--------------------|---------|--------------------|
B|---------|--------------------|---------|--------------------|---------|--------------------|
G|---------|--------------------|---------|--------------------|---------|--------------------|
D|-4-------|-4------7-----2-----|-4-------|-4------7-----2-----|-4-------|-4------7-----2-----|
A|-2-------|-2------5-----0-----|-2-------|-2------5-----0-----|-2-------|-2------5-----0-----|
E|---------|--------------------|---------|--------------------|---------|--------------------|

E|---------|--------------------|---------|--------------------|---------|--------------------|
B|---------|--------------------|---------|--------------------|---------|--------------------|
G|---------|--------------------|---------|--------------------|---------|--------------------|
D|-4-------|-4------7-----2-----|-4-------|-4------7-----2-----|-4-------|-4------2-----2-----|
A|-2-------|-2------5-----0-----|-2-------|-2------5-----0-----|-2-------|-2------0-----0-----|
E|---------|--------------------|---------|--------------------|---------|--------------------|

E|------------------------|--------------------|------------------------|--------------------|
B|-12------10---12---10---|-8------10----12----|-10------8----10---8----|-7------8-----10----|
G|------------------------|--------------------|------------------------|--------------------|
D|------------------------|--------------------|------------------------|--------------------|
A|------------------------|--------------------|------------------------|--------------------|
E|------------------------|--------------------|------------------------|--------------------|

E|------------------------|--------------------7-----|------------------------|--------------------|
B|-12------10---12---10---|-8------8-----10----------|-10------8----10---8----|-7------8-----10----|
G|------------------------|--------------------------|------------------------|--------------------|
D|------------------------|--------------------------|------------------------|--------------------|
A|------------------------|--------------------------|------------------------|--------------------|
E|------------------------|--------------------------|------------------------|--------------------|

E|------------------------|--------------------|------------------------|--------------------|
B|-12------10---12---10---|-8------10----12----|-10------8----10---8----|-7------8-----10----|
G|------------------------|--------------------|------------------------|--------------------|
D|------------------------|--------------------|------------------------|--------------------|
A|------------------------|--------------------|------------------------|--------------------|
E|------------------------|--------------------|------------------------|--------------------|

E|------------------------|--------------------7-----|------------------------|--------------------|
B|-12------10---12---10---|-8------8-----10----------|-10------8----10---8----|-7------8-----10----|
G|------------------------|--------------------------|------------------------|--------------------|
D|------------------------|--------------------------|------------------------|--------------------|
A|------------------------|--------------------------|------------------------|--------------------|
E|------------------------|--------------------------|------------------------|--------------------|

E|-------------------------------|-------------------------------------|-------------------------------|
B|-------------------------------|-------------------------------------|-------------------------------|
G|-9-----9-----9-----9-----%-----|-------------------------------------|-5-----5-----5-----5-----%-----|
D|-9-----9-----9-----9-----%-----|-7-----9-----7-----10----9-----7-----|-5-----5-----5-----5-----%-----|
A|-7-----7-----7-----7-----------|-------------------------------------|-3-----3-----3-----3-----------|
E|-------------------------------|-------------------------------------|-------------------------------|

E|-------------------------------------|
B|-------------------------------------|
G|-------------------------------------|
D|-------7-----------9-----7-----------|
A|-9-----------9-----------------9-----|
E|-------------------------------------|
Iron Maiden - The Duellists
Iron Maiden - The Duellists.gp3