Iron Maiden - The Edge Of Darkness

Iron Maiden



Title: The Edge Of Darkness
Album: The X Factor
Artist: Iron Maiden
Author: Iron Maiden

Track 1: Distortion Guitar 1
E|---------------|---------|---------------|---------|---------------|---------|---------------|
B|---------------|---------|---------------|---------|---------------|---------|---------------|
G|--------2------|---------|--------2------|---------|--------2------|---------|--------2------|
D|-4------0------|-4-------|-4------0------|-4-------|-4------0------|-4-------|-4------0------|
A|-2------0------|-2-------|-2------0------|-2-------|-2------0------|-2-------|-2------0------|
E|-0------3------|-0-------|-0------3------|-0-------|-0------3------|-0-------|-0------3------|

E|---------|---------------|---------|---------------|---------|---------|---------|
B|---------|---------------|---------|---------------|---------|---------|---------|
G|---------|--------2------|---------|--------2------|---------|-%-------|-%-------|
D|-4-------|-4------0------|-4-------|-4------0------|-4-------|-%-------|-%-------|
A|-2-------|-2------0------|-2-------|-2------0------|-2-------|---------|---------|
E|-0-------|-0------3------|-0-------|-0------3------|-0-------|---------|---------|

E|---------|---------|---------|---------|---------|---------|---------------|---------|
B|---------|---------|---------|---------|---------|---------|---------------|---------|
G|-%-------|-%-------|-%-------|-%-------|-%-------|-%-------|--------2------|---------|
D|-%-------|-%-------|-%-------|-%-------|-%-------|-%-------|-4------0------|-4-------|
A|---------|---------|---------|---------|---------|---------|-2------0------|-2-------|
E|---------|---------|---------|---------|---------|---------|-0------3------|-0-------|

E|---------------|---------|---------|---------|---------|---------|---------|---------|
B|---------------|---------|---------|---------|---------|---------|---------|---------|
G|---------------|---------|-%-------|-%-------|-%-------|-%-------|-%-------|-%-------|
D|-4------5------|-7-------|-%-------|-%-------|-%-------|-%-------|-%-------|-%-------|
A|-2------3------|-5-------|---------|---------|---------|---------|---------|---------|
E|-0-------------|---------|---------|---------|---------|---------|---------|---------|

E|---------|---------|---------|---------|---------|---------|---------|---------|---------|
B|---------|---------|---------|---------|---------|---------|---------|---------|---------|
G|-%-------|-%-------|-%-------|-%-------|-%-------|-%-------|-%-------|-%-------|-%-------|
D|-%-------|-%-------|-%-------|-%-------|-%-------|-%-------|-%-------|-%-------|-%-------|
A|---------|---------|---------|---------|---------|---------|---------|---------|---------|
E|---------|---------|---------|---------|---------|---------|---------|---------|---------|

E|---------|-----------------------------------------------------|-----------------------------------------------------|
B|---------|-----------------------------------------------------|-----------------------------------------------------|
G|-%-------|-----------------------------------------------------|-----------------------------------------------------|
D|-%-------|-9----9---9---9----9---9---9----9---9---9----9---9---|-12---12--12--12---12--12--12---12--12--12---12--12--|
A|---------|-7----7---7---7----7---7---7----7---7---7----7---7---|-10---10--10--10---10--10--10---10--10--10---10--10--|
E|---------|-----------------------------------------------------|-----------------------------------------------------|

E|-----------------------------------------------------|-----------------------------------------------------|
B|-----------------------------------------------------|-----------------------------------------------------|
G|-----------------------------------------------------|-----------------------------------------------------|
D|-----------------------------------------------------|-5----5---5---5----5---5---7----7---7---7----7---7---|
A|-7----7---7---7----7---7---7----7---7---7----7---7---|-3----3---3---3----3---3---5----5---5---5----5---5---|
E|-5----5---5---5----5---5---5----5---5---5----5---5---|-----------------------------------------------------|

E|-----------------------------------------------------|-----------------------------------------------------|
B|-----------------------------------------------------|-----------------------------------------------------|
G|-----------------------------------------------------|-----------------------------------------------------|
D|-9----9---9---9----9---9---9----9---9---9----9---9---|-12---12--12--12---12--12--12---12--12--12---12--12--|
A|-7----7---7---7----7---7---7----7---7---7----7---7---|-10---10--10--10---10--10--10---10--10--10---10--10--|
E|-----------------------------------------------------|-----------------------------------------------------|

E|-----------------------------------------------------|---------------------------|
B|-----------------------------------------------------|---------------------------|
G|-----------------------------------------------------|---------------------------|
D|-5----5---5---5----5---5---5----5---5---5----5---5---|-7----7---7---7----7---7---|
A|-3----3---3---3----3---3---3----3---3---3----3---3---|-5----5---5---5----5---5---|
E|-----------------------------------------------------|---------------------------|

E|-----------------------------------------------------|-----------------------------------------------------|
B|-----------------------------------------------------|-----------------------------------------------------|
G|-----------------------------------------------------|-----------------------------------------------------|
D|-9----9---9---9----9---9---9----9---9---9----9---9---|-12---12--12--12---12--12--12---12--12--12---12--12--|
A|-7----7---7---7----7---7---7----7---7---7----7---7---|-10---10--10--10---10--10--10---10--10--10---10--10--|
E|-----------------------------------------------------|-----------------------------------------------------|

E|-----------------------------------------------------|-----------------------------------------------------|
B|-----------------------------------------------------|-----------------------------------------------------|
G|-----------------------------------------------------|-----------------------------------------------------|
D|-----------------------------------------------------|-5----5---5---5----5---5---7----7---7---7----7---7---|
A|-7----7---7---7----7---7---7----7---7---7----7---7---|-3----3---3---3----3---3---5----5---5---5----5---5---|
E|-5----5---5---5----5---5---5----5---5---5----5---5---|-----------------------------------------------------|

E|---------|---------|---------|---------|---------|---------|---------|---------|-----------------------------------------------------|
B|---------|---------|---------|---------|---------|---------|---------|---------|-----------------------------------------------------|
G|-%-------|-%-------|-%-------|-%-------|-%-------|-%-------|-%-------|-%-------|-----------------------------------------------------|
D|-%-------|-%-------|-%-------|-%-------|-%-------|-%-------|-%-------|-%-------|-9----9---9---9----9---9---9----9---9---9----9---9---|
A|---------|---------|---------|---------|---------|---------|---------|---------|-7----7---7---7----7---7---7----7---7---7----7---7---|
E|---------|---------|---------|---------|---------|---------|---------|---------|-----------------------------------------------------|

E|-----------------------------------------------------|-----------------------------------------------------|
B|-----------------------------------------------------|-----------------------------------------------------|
G|-----------------------------------------------------|-----------------------------------------------------|
D|-12---12--12--12---12--12--12---12--12--12---12--12--|-5----5---5---5----5---5---5----5---5---5----5---5---|
A|-10---10--10--10---10--10--10---10--10--10---10--10--|-3----3---3---3----3---3---3----3---3---3----3---3---|
E|-----------------------------------------------------|-----------------------------------------------------|

E|---------------------------|---------|---------|---------|---------|---------|---------|
B|---------------------------|---------|---------|---------|---------|---------|---------|
G|---------------------------|-%-------|-%-------|-%-------|-%-------|-%-------|-%-------|
D|-7----7---7---7----7---7---|-%-------|-%-------|-%-------|-%-------|-%-------|-%-------|
A|-5----5---5---5----5---5---|---------|---------|---------|---------|---------|---------|
E|---------------------------|---------|---------|---------|---------|---------|---------|

E|---------|---------|---------|---------|---------|---------|---------|---------|---------|
B|---------|---------|---------|---------|---------|---------|---------|---------|---------|
G|-%-------|-%-------|-%-------|-%-------|-%-------|-%-------|-%-------|-%-------|-%-------|
D|-%-------|-%-------|-%-------|-%-------|-%-------|-%-------|-%-------|-%-------|-%-------|
A|---------|---------|---------|---------|---------|---------|---------|---------|---------|
E|---------|---------|---------|---------|---------|---------|---------|---------|---------|

E|---------|-----------------------------------------------------|-----------------------------------------------------|
B|---------|-----------------------------------------------------|-----------------------------------------------------|
G|-%-------|-----------------------------------------------------|-----------------------------------------------------|
D|-%-------|-9----9---9---9----9---9---9----9---9---9----9---9---|-12---12--12--12---12--12--12---12--12--12---12--12--|
A|---------|-7----7---7---7----7---7---7----7---7---7----7---7---|-10---10--10--10---10--10--10---10--10--10---10--10--|
E|---------|-----------------------------------------------------|-----------------------------------------------------|

E|-----------------------------------------------------|-----------------------------------------------------|
B|-----------------------------------------------------|-----------------------------------------------------|
G|-----------------------------------------------------|-----------------------------------------------------|
D|-----------------------------------------------------|-5----5---5---5----5---5---7----7---7---7----7---7---|
A|-7----7---7---7----7---7---7----7---7---7----7---7---|-3----3---3---3----3---3---5----5---5---5----5---5---|
E|-5----5---5---5----5---5---5----5---5---5----5---5---|-----------------------------------------------------|

E|-----------------------------------------------------|-----------------------------------------------------|
B|-----------------------------------------------------|-----------------------------------------------------|
G|-----------------------------------------------------|-----------------------------------------------------|
D|-9----9---9---9----9---9---9----9---9---9----9---9---|-12---12--12--12---12--12--12---12--12--12---12--12--|
A|-7----7---7---7----7---7---7----7---7---7----7---7---|-10---10--10--10---10--10--10---10--10--10---10--10--|
E|-----------------------------------------------------|-----------------------------------------------------|

E|-----------------------------------------------------|-----------------------------------------------------|
B|-----------------------------------------------------|-----------------------------------------------------|
G|-----------------------------------------------------|-----------------------------------------------------|
D|-----------------------------------------------------|-5----5---5---5----5---5---7----7---7---7----7---7---|
A|-7----7---7---7----7---7---7----7---7---7----7---7---|-3----3---3---3----3---3---5----5---5---5----5---5---|
E|-5----5---5---5----5---5---5----5---5---5----5---5---|-----------------------------------------------------|

E|---------|---------|---------|---------|---------|---------|---------|---------|---------|
B|---------|---------|---------|---------|---------|---------|---------|---------|---------|
G|-%-------|-%-------|-%-------|-%-------|-%-------|-%-------|-%-------|-%-------|-%-------|
D|-%-------|-%-------|-%-------|-%-------|-%-------|-%-------|-%-------|-%-------|-%-------|
A|---------|---------|---------|---------|---------|---------|---------|---------|---------|
E|---------|---------|---------|---------|---------|---------|---------|---------|---------|

E|---------|---------|---------|---------|---------|---------|---------|---------|---------|
B|---------|---------|---------|---------|---------|---------|---------|---------|---------|
G|-%-------|-%-------|-%-------|-%-------|-%-------|-%-------|-%-------|---------|---------|
D|-%-------|-%-------|-%-------|-%-------|-%-------|-%-------|-%-------|-9-------|-12------|
A|---------|---------|---------|---------|---------|---------|---------|-7-------|-10------|
E|---------|---------|---------|---------|---------|---------|---------|---------|---------|

E|---------|---------------|---------|---------|---------|---------------|---------|
B|---------|---------------|---------|---------|---------|---------------|---------|
G|---------|---------------|---------|---------|---------|---------------|-%-------|
D|---------|-5------7------|-9-------|-12------|---------|-5------7------|-%-------|
A|-7-------|-3------5------|-7-------|-10------|-7-------|-3------5------|---------|
E|-5-------|---------------|---------|---------|-5-------|---------------|---------|

E|---------|---------|---------|---------|---------|---------|---------|---------|---------|
B|---------|---------|---------|---------|---------|---------|---------|---------|---------|
G|-%-------|-%-------|-%-------|-%-------|-%-------|-%-------|-%-------|-%-------|-%-------|
D|-%-------|-%-------|-%-------|-%-------|-%-------|-%-------|-%-------|-%-------|-%-------|
A|---------|---------|---------|---------|---------|---------|---------|---------|---------|
E|---------|---------|---------|---------|---------|---------|---------|---------|---------|

E|---------|---------|---------|---------|---------|---------|---------|---------|
B|---------|---------|---------|---------|---------|---------|---------|---------|
G|-%-------|-%-------|-%-------|-%-------|-%-------|-%-------|-%-------|-%-------|
D|-%-------|-%-------|-%-------|-%-------|-%-------|-%-------|-%-------|-%-------|
A|---------|---------|---------|---------|---------|---------|---------|---------|
E|---------|---------|---------|---------|---------|---------|---------|---------|
Iron Maiden - The Edge Of Darkness
Iron Maiden - The Edge Of Darkness.gp3