Iron Maiden - The Educated Fool

Iron Maiden



Title: The Educated Fool
Album: Virtual XI
Artist: Iron Maiden
Author: 

Track 1: Dist. Guitar 1
E|-----------------------------|------------------------------------------------------------|
B|-----------------------------|------------------------------------------------------------|
G|-----------------------------|-------------------------------7-----7----------------------|
D|------9----10---9----9-------|------9----10---9----10---9----------------10---9----7------|
A|-7---------------------------|-7----------------------------------------------------------|
E|-----------------------------|------------------------------------------------------------|

E|-----------------------------|---------------------------------------------------------------------|
B|-----------------------------|-----------------------------------------------------------5----7----|
G|-----------------------------|-------------------------------7-----7-------------------------------|
D|------9----10---9----9-------|------9----10---9----10---9----------------10---9----7---------------|
A|-7---------------------------|-7-------------------------------------------------------------------|
E|-----------------------------|---------------------------------------------------------------------|

E|------5------------------------------------------------------|------5--------------------5-----5-----5---------5---------------|
B|-8---------8----7----8-----8-----8-----8-----8-----5----7----|-8---------8----7----8----------------------8----------5----7----|
G|-------------------------------------------------------------|-----------------------------------------------------------------|
D|-------------------------------------------------------------|-----------------------------------------------------------------|
A|-------------------------------------------------------------|-----------------------------------------------------------------|
E|-------------------------------------------------------------|-----------------------------------------------------------------|

E|------5------------------------------------------------------|------5--------------------5-----5-----5---------5-----5-----|
B|-8---------8----7----8-----8-----8-----8-----8-----5----7----|-8---------8----7----8----------------------8----------------|
G|-------------------------------------------------------------|-------------------------------------------------------------|
D|-------------------------------------------------------------|-------------------------------------------------------------|
A|-------------------------------------------------------------|-------------------------------------------------------------|
E|-------------------------------------------------------------|-------------------------------------------------------------|

E|-----------------|-----------------|-----------------|-----------------|-----------------------------------------|
B|-----------------|-----------------|-----------------|-----------------|------12-------------10-------------8----|
G|-%-------%-------|-%-------%-------|-%-------%-------|-%-------%-------|-9---------%----9---------%----9---------|
D|-%-------%-------|-%-------%-------|-%-------%-------|-%-------%-------|-----------%--------------%--------------|
A|-----------------|-----------------|-----------------|-----------------|-----------------------------------------|
E|-----------------|-----------------|-----------------|-----------------|-----------------------------------------|

E|-----------------------------------------|-----------------------------------------|
B|-----------------------------------------|------12-------------10-------------8----|
G|-%----7----9----%----9----7----7----9----|-9---------%----9---------%----9---------|
D|-%--------------%------------------------|-----------%--------------%--------------|
A|-----------------------------------------|-----------------------------------------|
E|-----------------------------------------|-----------------------------------------|

E|-----------------------------------------|-----------------------------------------|
B|-----------------------------------------|------12-------------10-------------8----|
G|-%----7----9----%----9----7----7----9----|-9---------%----9---------%----9---------|
D|-%--------------%------------------------|-----------%--------------%--------------|
A|-----------------------------------------|-----------------------------------------|
E|-----------------------------------------|-----------------------------------------|

E|-----------------------------------------|-----------------------------------------|
B|-----------------------------------------|------12-------------10-------------8----|
G|-%----7----9----%----9----7----7----9----|-9---------%----9---------%----9---------|
D|-%--------------%------------------------|-----------%--------------%--------------|
A|-----------------------------------------|-----------------------------------------|
E|-----------------------------------------|-----------------------------------------|

E|-----------------------------------------|-----------------------------------------|
B|-----------------------------------------|-----------------------------------------|
G|-%----7----9----%----9----7----7----9----|-7----9----9----9----9----9----9----9----|
D|-%--------------%------------------------|-7----9----9----9----9----9----9----9----|
A|-----------------------------------------|-5----7----7----7----7----7----7----7----|
E|-----------------------------------------|-----------------------------------------|

E|-------------------------------------|-------------------------------------|---------------------------------|
B|-------------------------------------|-------------------------------------|---------------------------------|
G|-X----9----X----9----9-----X----X----|-5----5----5----5----5----5----------|---------------------7-----7-----|
D|-X----9----X----9----9-----X----X----|-5----5----5----5----5----5----5-----|-5----5----X----5----7-----7-----|
A|-X----7----X----7----7-----X----X----|-3----3----3----3----3----3----5-----|-5----5----X----5----5-----5-----|
E|-------------------------------------|-------------------------------3-----|-3----3----X----3----------------|

E|-----------------------------------------|-------------------------------------|---------------------------------|
B|-----------------------------------------|-------------------------------------|---------------------------------|
G|-7----9----9----9----9----9----9----9----|-X----9----X----9----9-----X----X----|-5----5----5----5----5-----7-----|
D|-7----9----9----9----9----9----9----9----|-X----9----X----9----9-----X----X----|-5----5----5----5----5-----7-----|
A|-5----7----7----7----7----7----7----7----|-X----7----X----7----7-----X----X----|-3----3----3----3----3-----5-----|
E|-----------------------------------------|-------------------------------------|---------------------------------|

E|---------|-----------------------------------------|-------------------------------------|
B|---------|-----------------------------------------|-------------------------------------|
G|-7-------|-7----9----9----9----9----9----9----9----|-X----9----X----9----9-----X----X----|
D|-7-------|-7----9----9----9----9----9----9----9----|-X----9----X----9----9-----X----X----|
A|-5-------|-5----7----7----7----7----7----7----7----|-X----7----X----7----7-----X----X----|
E|---------|-----------------------------------------|-------------------------------------|

E|-------------------------------------|---------------------------------|-----------------------------------------|
B|-------------------------------------|---------------------------------|-----------------------------------------|
G|-5----5----5----5----5----5----------|---------------------7-----7-----|-7----9----9----9----9----9----9----9----|
D|-5----5----5----5----5----5----5-----|-5----5----X----5----7-----7-----|-7----9----9----9----9----9----9----9----|
A|-3----3----3----3----3----3----5-----|-5----5----X----5----5-----5-----|-5----7----7----7----7----7----7----7----|
E|-------------------------------3-----|-3----3----X----3----------------|-----------------------------------------|

E|-------------------------------------|---------------------------------|---------|
B|-------------------------------------|---------------------------------|---------|
G|-X----9----X----9----9-----X----X----|-5----5----5----5----5-----7-----|-7-------|
D|-X----9----X----9----9-----X----X----|-5----5----5----5----5-----7-----|-7-------|
A|-X----7----X----7----7-----X----X----|-3----3----3----3----3-----5-----|-5-------|
E|-------------------------------------|---------------------------------|---------|

E|-----------------------------------------|-----------------------------------------|
B|------12-------------10-------------8----|-----------------------------------------|
G|-9---------%----9---------%----9---------|-%----7----9----%----9----7----7----9----|
D|------9----%---------7----%---------5----|-%--------------%------------------------|
A|-7--------------7--------------7---------|------5----7---------7----5----5----7----|
E|-----------------------------------------|-----------------------------------------|

E|-----------------------------------------|-----------------------------------------|
B|------12-------------10-------------8----|-----------------------------------------|
G|-9---------%----9---------%----9---------|-%----7----9----%----9----7----7----9----|
D|------9----%---------7----%---------5----|-%--------------%------------------------|
A|-7--------------7--------------7---------|------5----7---------7----5----5----7----|
E|-----------------------------------------|-----------------------------------------|

E|-----------------------------------------|-----------------------------------------|
B|------12-------------10-------------8----|-----------------------------------------|
G|-9---------%----9---------%----9---------|-%----7----9----%----9----7----7----9----|
D|------9----%---------7----%---------5----|-%--------------%------------------------|
A|-7--------------7--------------7---------|------5----7---------7----5----5----7----|
E|-----------------------------------------|-----------------------------------------|

E|-----------------------------------------|-----------------------------------------|
B|------12-------------10-------------8----|-----------------------------------------|
G|-9---------%----9---------%----9---------|-%----7----9----%----9----7----7----9----|
D|------9----%---------7----%---------5----|-%--------------%------------------------|
A|-7--------------7--------------7---------|------5----7---------7----5----5----7----|
E|-----------------------------------------|-----------------------------------------|

E|-----------------------------------------|-----------------------------------------|
B|------12-------------10-------------8----|-----------------------------------------|
G|-9---------%----9---------%----9---------|-%----7----9----%----9----7----7----9----|
D|------9----%---------7----%---------5----|-%--------------%------------------------|
A|-7--------------7--------------7---------|------5----7---------7----5----5----7----|
E|-----------------------------------------|-----------------------------------------|

E|-----------------------------------------|-----------------------------------------|
B|------12-------------10-------------8----|-----------------------------------------|
G|-9---------%----9---------%----9---------|-%----7----9----%----9----7----7----9----|
D|------9----%---------7----%---------5----|-%--------------%------------------------|
A|-7--------------7--------------7---------|------5----7---------7----5----5----7----|
E|-----------------------------------------|-----------------------------------------|

E|-----------------------------------------|-----------------------------------------|
B|------12-------------10-------------8----|-----------------------------------------|
G|-9---------%----9---------%----9---------|-%----7----9----%----9----7----7----9----|
D|------9----%---------7----%---------5----|-%--------------%------------------------|
A|-7--------------7--------------7---------|------5----7---------7----5----5----7----|
E|-----------------------------------------|-----------------------------------------|

E|-----------------------------------------|-----------------------------------------|
B|------12-------------10-------------8----|-----------------------------------------|
G|-9---------%----9---------%----9---------|-%----7----9----%----9----7----7----9----|
D|------9----%---------7----%---------5----|-%--------------%------------------------|
A|-7--------------7--------------7---------|------5----7---------7----5----5----7----|
E|-----------------------------------------|-----------------------------------------|

E|-----------------------------------------|-------------------------------------|-------------------------------------|
B|-----------------------------------------|-------------------------------------|-------------------------------------|
G|-7----9----9----9----9----9----9----9----|-X----9----X----9----9-----X----X----|-5----5----5----5----5----5----------|
D|-7----9----9----9----9----9----9----9----|-X----9----X----9----9-----X----X----|-5----5----5----5----5----5----5-----|
A|-5----7----7----7----7----7----7----7----|-X----7----X----7----7-----X----X----|-3----3----3----3----3----3----5-----|
E|-----------------------------------------|-------------------------------------|-------------------------------3-----|

E|---------------------------------|-----------------------------------------|-------------------------------------|
B|---------------------------------|-----------------------------------------|-------------------------------------|
G|---------------------7-----7-----|-7----9----9----9----9----9----9----9----|-X----9----X----9----9-----X----X----|
D|-5----5----X----5----7-----7-----|-7----9----9----9----9----9----9----9----|-X----9----X----9----9-----X----X----|
A|-5----5----X----5----5-----5-----|-5----7----7----7----7----7----7----7----|-X----7----X----7----7-----X----X----|
E|-3----3----X----3----------------|-----------------------------------------|-------------------------------------|

E|---------------------------------|---------|-----------------------------------------|
B|---------------------------------|---------|-----------------------------------------|
G|-5----5----5----5----5-----7-----|-7-------|-7----9----9----9----9----9----9----9----|
D|-5----5----5----5----5-----7-----|-7-------|-7----9----9----9----9----9----9----9----|
A|-3----3----3----3----3-----5-----|-5-------|-5----7----7----7----7----7----7----7----|
E|---------------------------------|---------|-----------------------------------------|

E|-------------------------------------|-------------------------------------|---------------------------------|
B|-------------------------------------|-------------------------------------|---------------------------------|
G|-X----9----X----9----9-----X----X----|-5----5----5----5----5----5----------|---------------------7-----7-----|
D|-X----9----X----9----9-----X----X----|-5----5----5----5----5----5----5-----|-5----5----X----5----7-----7-----|
A|-X----7----X----7----7-----X----X----|-3----3----3----3----3----3----5-----|-5----5----X----5----5-----5-----|
E|-------------------------------------|-------------------------------3-----|-3----3----X----3----------------|

E|-----------------------------------------|-------------------------------------|---------------------------------|
B|-----------------------------------------|-------------------------------------|---------------------------------|
G|-7----9----9----9----9----9----9----9----|-X----9----X----9----9-----X----X----|-5----5----5----5----5-----7-----|
D|-7----9----9----9----9----9----9----9----|-X----9----X----9----9-----X----X----|-5----5----5----5----5-----7-----|
A|-5----7----7----7----7----7----7----7----|-X----7----X----7----7-----X----X----|-3----3----3----3----3-----5-----|
E|-----------------------------------------|-------------------------------------|---------------------------------|

E|---------|-----------------------------------------|-----------------------------------------|
B|---------|------12-------------10-------------8----|-----------------------------------------|
G|-7-------|-9---------%----9---------%----9---------|-%----7----9----%----9----7----7----9----|
D|-7-------|------9----%---------7----%---------5----|-%--------------%------------------------|
A|-5-------|-7--------------7--------------7---------|------5----7---------7----5----5----7----|
E|---------|-----------------------------------------|-----------------------------------------|

E|-----------------------------------------|-----------------------------------------|
B|------12-------------10-------------8----|-----------------------------------------|
G|-9---------%----9---------%----9---------|-%----7----9----%----9----7----7----9----|
D|------9----%---------7----%---------5----|-%--------------%------------------------|
A|-7--------------7--------------7---------|------5----7---------7----5----5----7----|
E|-----------------------------------------|-----------------------------------------|

E|-----------------------------------------|-----------------------------------------|
B|------12-------------10-------------8----|-----------------------------------------|
G|-9---------%----9---------%----9---------|-%----7----9----%----9----7----7----9----|
D|------9----%---------7----%---------5----|-%--------------%------------------------|
A|-7--------------7--------------7---------|------5----7---------7----5----5----7----|
E|-----------------------------------------|-----------------------------------------|

E|-----------------------------------------|-----------------------------------------|
B|------12-------------10-------------8----|-----------------------------------------|
G|-9---------%----9---------%----9---------|-%----7----9----%----9----7----7----9----|
D|------9----%---------7----%---------5----|-%--------------%------------------------|
A|-7--------------7--------------7---------|------5----7---------7----5----5----7----|
E|-----------------------------------------|-----------------------------------------|

E|-----------------------------------------|-----------------------------------------|
B|------12-------------10-------------8----|-----------------------------------------|
G|-9---------%----9---------%----9---------|-%----7----9----%----9----7----7----9----|
D|------9----%---------7----%---------5----|-%--------------%------------------------|
A|-7--------------7--------------7---------|------5----7---------7----5----5----7----|
E|-----------------------------------------|-----------------------------------------|

E|-----------------------------------------|-----------------------------------------|
B|------12-------------10-------------8----|-----------------------------------------|
G|-9---------%----9---------%----9---------|-%----7----9----%----9----7----7----9----|
D|------9----%---------7----%---------5----|-%--------------%------------------------|
A|-7--------------7--------------7---------|------5----7---------7----5----5----7----|
E|-----------------------------------------|-----------------------------------------|

E|-----------------------------------------|-----------------------------------------|
B|------12-------------10-------------8----|-----------------------------------------|
G|-9---------%----9---------%----9---------|-%----7----9----%----9----7----7----9----|
D|------9----%---------7----%---------5----|-%--------------%------------------------|
A|-7--------------7--------------7---------|------5----7---------7----5----5----7----|
E|-----------------------------------------|-----------------------------------------|

E|-----------------------------------------|-----------------------------------------|
B|------12-------------10-------------8----|-----------------------------------------|
G|-9---------%----9---------%----9---------|-%----7----9----%----9----7----7----9----|
D|------9----%---------7----%---------5----|-%--------------%------------------------|
A|-7--------------7--------------7---------|------5----7---------7----5----5----7----|
E|-----------------------------------------|-----------------------------------------|

E|---------|---------|---------|---------------|---------|---------|---------|---------|
B|---------|---------|---------|---------------|---------|---------|---------|---------|
G|-9-------|-12------|-5-------|-5------7------|-9-------|-12------|-5-------|-7-------|
D|-9-------|-12------|-5-------|-5------7------|-9-------|-12------|-5-------|-7-------|
A|-7-------|-10------|-3-------|-3------5------|-7-------|-10------|-3-------|-5-------|
E|---------|---------|---------|---------------|---------|---------|---------|---------|

E|---------|---------|---------|---------------|---------|---------|---------|---------|
B|---------|---------|---------|---------------|---------|---------|---------|---------|
G|-9-------|-12------|-5-------|-5------7------|-9-------|-12------|-5-------|-7-------|
D|-9-------|-12------|-5-------|-5------7------|-9-------|-12------|-5-------|-7-------|
A|-7-------|-10------|-3-------|-3------5------|-7-------|-10------|-3-------|-5-------|
E|---------|---------|---------|---------------|---------|---------|---------|---------|

E|---------|---------|---------|---------------|---------|---------|---------|---------|
B|---------|---------|---------|---------------|---------|---------|---------|---------|
G|-9-------|-12------|-5-------|-5------7------|-9-------|-12------|-5-------|-7-------|
D|-9-------|-12------|-5-------|-5------7------|-9-------|-12------|-5-------|-7-------|
A|-7-------|-10------|-3-------|-3------5------|-7-------|-10------|-3-------|-5-------|
E|---------|---------|---------|---------------|---------|---------|---------|---------|

E|---------|---------|---------|---------------|---------|---------|---------|---------|
B|---------|---------|---------|---------------|---------|---------|---------|---------|
G|-9-------|-12------|-5-------|-5------7------|-9-------|-12------|-5-------|-7-------|
D|-9-------|-12------|-5-------|-5------7------|-9-------|-12------|-5-------|-7-------|
A|-7-------|-10------|-3-------|-3------5------|-7-------|-10------|-3-------|-5-------|
E|---------|---------|---------|---------------|---------|---------|---------|---------|

E|---------------------------------|---------|-----------------------------------------|
B|---------------------------------|---------|-----------------------------------------|
G|---------------------------------|---------|---------------------7-------------------|
D|------9----10---9----9-----9-----|-9-------|------9----10---9---------10---9----10---|
A|-7-------------------------------|---------|-7---------------------------------------|
E|---------------------------------|---------|-----------------------------------------|

E|---------------|---------------------------------|---------|-----------------------------------------|
B|---------------|---------------------------------|---------|-----------------------------------------|
G|---------------|---------------------------------|---------|---------------------7-------------------|
D|-5------7------|------9----10---9----9-----9-----|-9-------|------9----10---9---------10---9----10---|
A|---------------|-7-------------------------------|---------|-7---------------------------------------|
E|---------------|---------------------------------|---------|-----------------------------------------|

E|---------------|---------------------------------|---------|-----------------------------------------|
B|---------------|---------------------------------|---------|-----------------------------------------|
G|---------------|---------------------------------|---------|---------------------7-------------------|
D|-5------7------|------9----10---9----9-----9-----|-9-------|------9----10---9---------10---9----10---|
A|---------------|-7-------------------------------|---------|-7---------------------------------------|
E|---------------|---------------------------------|---------|-----------------------------------------|

E|---------------|---------------------------------|---------|-----------------------------------------|
B|---------------|---------------------------------|---------|-----------------------------------------|
G|---------------|---------------------------------|---------|---------------------7-------------------|
D|-5------7------|------9----10---9----9-----9-----|-9-------|------9----10---9---------10---9----10---|
A|---------------|-7-------------------------------|---------|-7---------------------------------------|
E|---------------|---------------------------------|---------|-----------------------------------------|

E|---------------|---------------------------------|---------|-----------------------------------------|
B|---------------|---------------------------------|---------|-----------------------------------------|
G|---------------|---------------------------------|---------|---------------------7-------------------|
D|-5------7------|------9----10---9----9-----9-----|-9-------|------9----10---9---------10---9----10---|
A|---------------|-7-------------------------------|---------|-7---------------------------------------|
E|---------------|---------------------------------|---------|-----------------------------------------|

E|---------------|---------------------------------|---------|-----------------------------------------|
B|---------------|---------------------------------|---------|-----------------------------------------|
G|---------------|---------------------------------|---------|---------------------7-------------------|
D|-5------7------|------9----10---9----9-----9-----|-9-------|------9----10---9---------10---9----10---|
A|---------------|-7-------------------------------|---------|-7---------------------------------------|
E|---------------|---------------------------------|---------|-----------------------------------------|

E|---------------|-----------------------------------------|--------------------------5--------------|
B|---------------|-5---------7---------8--------------5----|------7---------8----8---------8----7----|
G|---------------|------%---------%---------%----%---------|-%---------%-----------------------------|
D|-5------7------|------%---------%---------%----%---------|-%---------%-----------------------------|
A|---------------|-----------------------------------------|-----------------------------------------|
E|---------------|-----------------------------------------|-----------------------------------------|

E|-----------------------------------------|--------------------------5--------------|
B|-5---------7---------8--------------5----|------7---------8----8---------8----7----|
G|------%---------%---------%----%---------|-%---------%-----------------------------|
D|------%---------%---------%----%---------|-%---------%-----------------------------|
A|-----------------------------------------|-----------------------------------------|
E|-----------------------------------------|-----------------------------------------|

E|-----------------------------------------|--------------------------5--------------|
B|-5---------7---------8--------------5----|------7---------8----8---------8----7----|
G|------%---------%---------%----%---------|-%---------%-----------------------------|
D|------%---------%---------%----%---------|-%---------%-----------------------------|
A|-----------------------------------------|-----------------------------------------|
E|-----------------------------------------|-----------------------------------------|

E|-----------------------------------------|--------------------------5--------------|
B|-5---------7---------8--------------5----|------7---------8----8---------8----7----|
G|------%---------%---------%----%---------|-%---------%-----------------------------|
D|------%---------%---------%----%---------|-%---------%-----------------------------|
A|-----------------------------------------|-----------------------------------------|
E|-----------------------------------------|-----------------------------------------|

E|------------------------|-----------------------------------------------------------------|
B|------------------------|-12--13--12--13--15--13--12--13--12--13--12--13--15--13--12--13--|
G|-16---16---16---16------|-----------------------------------------------------------------|
D|------------------------|-----------------------------------------------------------------|
A|------------------------|-----------------------------------------------------------------|
E|------------------------|-----------------------------------------------------------------|

E|-----------------------------|-----------------------------|---------------------17---19---19---17---|
B|-13----13----13----13---12---|-13----13----13----13--------|------17---19---20-----------------------|
G|-----------------------------|------------------------19---|-19--------------------------------------|
D|-----------------------------|-----------------------------|-----------------------------------------|
A|-----------------------------|-----------------------------|-----------------------------------------|
E|-----------------------------|-----------------------------|-----------------------------------------|

E|----------------17---19--------17---19---17---|-----------------------------------------|
B|-20---19---20-------------20------------------|-20---19---17--------17---19---20---19---|
G|----------------------------------------------|----------------19-----------------------|
D|----------------------------------------------|-----------------------------------------|
A|----------------------------------------------|-----------------------------------------|
E|----------------------------------------------|-----------------------------------------|

E|-------------------|-7----8----7---------7----7---------------|-------------------------------------|
B|-17----------------|----------------10--------------8----7----|-8-----7-----8-----10----8-----7-----|
G|------19---19------|------------------------------------------|-------------------------------------|
D|-------------------|------------------------------------------|-------------------------------------|
A|-------------------|------------------------------------------|-------------------------------------|
E|-------------------|------------------------------------------|-------------------------------------|

E|-------------------------------------|--------------------------------------|-----------------------------------------|
B|-8-----7-----5-----------------------|---------------------------------7----|-7---------7----8----10---7----8----10---|
G|-------------------7-----5-----4-----|-5----7----5----4-----4-----4---------|------9----------------------------------|
D|-------------------------------------|--------------------------------------|-----------------------------------------|
A|-------------------------------------|--------------------------------------|-----------------------------------------|
E|-------------------------------------|--------------------------------------|-----------------------------------------|

E|------------------------------------7----8----|-7----8----7---------7----8----10---15----|
B|-7----8----7---------7----8----10-------------|----------------10------------------------|
G|----------------9-----------------------------|------------------------------------------|
D|----------------------------------------------|------------------------------------------|
A|----------------------------------------------|------------------------------------------|
E|----------------------------------------------|------------------------------------------|

E|-15------|------------------------------------------------------------------|----------------------------------------------------------------|
B|---------|------------------------------------------------------------------|-------------------------------------------------5---------5----|
G|---------|------------------------------------------------------------------|-5---4--------4----5----4----5----7----5----7---------7---------|
D|---------|-5--4----------------4---------4----5----4----5----7----5----7----|---------7------------------------------------------------------|
A|---------|-------7---5----7---------7---------------------------------------|----------------------------------------------------------------|
E|---------|------------------------------------------------------------------|----------------------------------------------------------------|

E|-------------------------------5---------5----7----5---------|-15----15---15---15---14---12--------|
B|-7----5----7----8----7----8---------8-------------------8----|--------------------------------12---|
G|-------------------------------------------------------------|-------------------------------------|
D|-------------------------------------------------------------|-------------------------------------|
A|-------------------------------------------------------------|-------------------------------------|
E|-------------------------------------------------------------|-------------------------------------|

E|-12----14----15----17----14----15----|-19----17----15----14----15----14----|-12----------------------------------|
B|-------------------------------------|-------------------------------------|-------15----13----12----13----15----|
G|-------------------------------------|-------------------------------------|-------------------------------------|
D|-------------------------------------|-------------------------------------|-------------------------------------|
A|-------------------------------------|-------------------------------------|-------------------------------------|
E|-------------------------------------|-------------------------------------|-------------------------------------|

E|---------|-------------12----------12----14----|-14----15----15----15----------10----|
B|-15------|-12----12----------12----------------|-------------------------------------|
G|---------|-14----14----------------------------|-------------------------%-----------|
D|---------|-------------------------------------|-------------------------%-----------|
A|---------|-------------------------------------|-------------------------------------|
E|---------|-------------------------------------|-------------------------------------|

E|-10----10---7------------------------|----------------------------|-----------12---14---15---14---12---15---|
B|-----------------10---8--------------|----------------------------|------12---------------------------------|
G|---------------------------9----7----|----------------------------|-14--------------------------------------|
D|-------------------------------------|-9----7----5----7----7------|-----------------------------------------|
A|-------------------------------------|----------------------------|-----------------------------------------|
E|-------------------------------------|----------------------------|-----------------------------------------|

E|-15----15---14---15---12---12----|-17----15---14---15---14-------------|---------|
B|---------------------------------|---------------------------15--------|---------|
G|---------------------------------|--------------------------------14---|-14------|
D|---------------------------------|-------------------------------------|---------|
A|---------------------------------|-------------------------------------|---------|
E|---------------------------------|-------------------------------------|---------|

E|-----------------------------------------|--------------------------5--------------|
B|-5---------7---------8--------------5----|------7---------8----8---------8----7----|
G|------%---------%---------%----%---------|-%---------%-----------------------------|
D|------%---------%---------%----%---------|-%---------%-----------------------------|
A|-----------------------------------------|-----------------------------------------|
E|-----------------------------------------|-----------------------------------------|

E|-----------------------------------------|--------------------------5--------------|
B|-5---------7---------8--------------5----|------7---------8----8---------8----7----|
G|------%---------%---------%----%---------|-%---------%-----------------------------|
D|------%---------%---------%----%---------|-%---------%-----------------------------|
A|-----------------------------------------|-----------------------------------------|
E|-----------------------------------------|-----------------------------------------|

E|-----------------------------------------|--------------------------5--------------|
B|-5---------7---------8--------------5----|------7---------8----8---------8----7----|
G|------%---------%---------%----%---------|-%---------%-----------------------------|
D|------%---------%---------%----%---------|-%---------%-----------------------------|
A|-----------------------------------------|-----------------------------------------|
E|-----------------------------------------|-----------------------------------------|

E|-----------------------------------------|--------------------------5--------------|
B|-5---------7---------8--------------5----|------7---------8----8---------8----7----|
G|------%---------%---------%----%---------|-%---------%-----------------------------|
D|------%---------%---------%----%---------|-%---------%-----------------------------|
A|-----------------------------------------|-----------------------------------------|
E|-----------------------------------------|-----------------------------------------|

E|---------------------------------|---------|-------------------------------------|
B|---------------------------------|---------|-------------------------------------|
G|---------------------------------|---------|-------------------------------------|
D|------9----10---9----9-----9-----|-9-------|------9----10---9----9-----10---9----|
A|-7-------------------------------|---------|-7-----------------------------------|
E|---------------------------------|---------|-------------------------------------|

E|------------------------|----------------------------|---------|-------------------------------------|
B|------------------------|----------------------------|---------|-------------------------------------|
G|-7----------------------|----------------------------|---------|-------------------------------------|
D|-------10---9----7------|------9----10---9----9------|-9-------|------9----10---9----9-----10---9----|
A|------------------------|-7--------------------------|---------|-7-----------------------------------|
E|------------------------|----------------------------|---------|-------------------------------------|

E|------------------------|----------------------------|---------|-------------------------------------|
B|------------------------|----------------------------|---------|-------------------------------------|
G|-7----------------------|----------------------------|---------|-------------------------------------|
D|-------10---9----7------|------9----10---9----9------|-9-------|------9----10---9----9-----10---9----|
A|------------------------|-7--------------------------|---------|-7-----------------------------------|
E|------------------------|----------------------------|---------|-------------------------------------|

E|------------------------|----------------------------|---------|-------------------------------------|
B|------------------------|----------------------------|---------|-------------------------------------|
G|-7----------------------|----------------------------|---------|-------------------------------------|
D|-------10---9----7------|------9----10---9----9------|-9-------|------9----10---9----9-----10---9----|
A|------------------------|-7--------------------------|---------|-7-----------------------------------|
E|------------------------|----------------------------|---------|-------------------------------------|

E|------------------------|-----------------------------------------|-----------------------------------------|
B|------------------------|------12-------------10-------------8----|-----------------------------------------|
G|-7----------------------|-9---------%----9---------%----9---------|-%----7----9----%----9----7----7----9----|
D|-------10---9----7------|------9----%---------7----%---------5----|-%--------------%------------------------|
A|------------------------|-7--------------7--------------7---------|------5----7---------7----5----5----7----|
E|------------------------|-----------------------------------------|-----------------------------------------|

E|-----------------------------------------|-----------------------------------------|
B|------12-------------10-------------8----|-----------------------------------------|
G|-9---------%----9---------%----9---------|-%----7----9----%----9----7----7----9----|
D|------9----%---------7----%---------5----|-%--------------%------------------------|
A|-7--------------7--------------7---------|------5----7---------7----5----5----7----|
E|-----------------------------------------|-----------------------------------------|

E|-----------------------------------------|-----------------------------------------|
B|------12-------------10-------------8----|-----------------------------------------|
G|-9---------%----9---------%----9---------|-%----7----9----%----9----7----7----9----|
D|------9----%---------7----%---------5----|-%--------------%------------------------|
A|-7--------------7--------------7---------|------5----7---------7----5----5----7----|
E|-----------------------------------------|-----------------------------------------|

E|-----------------------------------------|-----------------------------------------|
B|------12-------------10-------------8----|-----------------------------------------|
G|-9---------%----9---------%----9---------|-%----7----9----%----9----7----7----9----|
D|------9----%---------7----%---------5----|-%--------------%------------------------|
A|-7--------------7--------------7---------|------5----7---------7----5----5----7----|
E|-----------------------------------------|-----------------------------------------|

E|-----------------------------------------|-----------------------------------------|
B|------12-------------10-------------8----|-----------------------------------------|
G|-9---------%----9---------%----9---------|-%----7----9----%----9----7----7----9----|
D|------9----%---------7----%---------5----|-%--------------%------------------------|
A|-7--------------7--------------7---------|------5----7---------7----5----5----7----|
E|-----------------------------------------|-----------------------------------------|

E|-----------------------------------------|-----------------------------------------|
B|------12-------------10-------------8----|-----------------------------------------|
G|-9---------%----9---------%----9---------|-%----7----9----%----9----7----7----9----|
D|------9----%---------7----%---------5----|-%--------------%------------------------|
A|-7--------------7--------------7---------|------5----7---------7----5----5----7----|
E|-----------------------------------------|-----------------------------------------|

E|-----------------------------------------|-----------------------------------------|
B|------12-------------10-------------8----|-----------------------------------------|
G|-9---------%----9---------%----9---------|-%----7----9----%----9----7----7----9----|
D|------9----%---------7----%---------5----|-%--------------%------------------------|
A|-7--------------7--------------7---------|------5----7---------7----5----5----7----|
E|-----------------------------------------|-----------------------------------------|

E|-----------------------------------------|-----------------------------------------|
B|------12-------------10-------------8----|-----------------------------------------|
G|-9---------%----9---------%----9---------|-%----7----9----%----9----7----7----9----|
D|------9----%---------7----%---------5----|-%--------------%------------------------|
A|-7--------------7--------------7---------|------5----7---------7----5----5----7----|
E|-----------------------------------------|-----------------------------------------|

E|---------|---------|---------|---------------|---------|---------|---------|---------|
B|---------|---------|---------|---------------|---------|---------|---------|---------|
G|-9-------|-12------|-5-------|-5------7------|-9-------|-12------|-5-------|-7-------|
D|-9-------|-12------|-5-------|-5------7------|-9-------|-12------|-5-------|-7-------|
A|-7-------|-10------|-3-------|-3------5------|-7-------|-10------|-3-------|-5-------|
E|---------|---------|---------|---------------|---------|---------|---------|---------|

E|---------|---------|---------|---------------|---------|---------|---------|---------|
B|---------|---------|---------|---------------|---------|---------|---------|---------|
G|-9-------|-12------|-5-------|-5------7------|-9-------|-12------|-5-------|-7-------|
D|-9-------|-12------|-5-------|-5------7------|-9-------|-12------|-5-------|-7-------|
A|-7-------|-10------|-3-------|-3------5------|-7-------|-10------|-3-------|-5-------|
E|---------|---------|---------|---------------|---------|---------|---------|---------|

E|---------|---------|---------|---------------|---------|---------|---------|---------|
B|---------|---------|---------|---------------|---------|---------|---------|---------|
G|-9-------|-12------|-5-------|-5------7------|-9-------|-12------|-5-------|-7-------|
D|-9-------|-12------|-5-------|-5------7------|-9-------|-12------|-5-------|-7-------|
A|-7-------|-10------|-3-------|-3------5------|-7-------|-10------|-3-------|-5-------|
E|---------|---------|---------|---------------|---------|---------|---------|---------|

E|---------|---------|---------|---------------|---------|---------|---------|---------|
B|---------|---------|---------|---------------|---------|---------|---------|---------|
G|-9-------|-12------|-5-------|-5------7------|-9-------|-12------|-5-------|-7-------|
D|-9-------|-12------|-5-------|-5------7------|-9-------|-12------|-5-------|-7-------|
A|-7-------|-10------|-3-------|-3------5------|-7-------|-10------|-3-------|-5-------|
E|---------|---------|---------|---------------|---------|---------|---------|---------|

E|----------------------------|---------|-------------------------------------|------------------------|
B|----------------------------|---------|-------------------------------------|------------------------|
G|----------------------------|---------|-------------------------------7-----|-7----------------------|
D|------9----10---9----9------|-9-------|------9----10---9----10---9----------|-------10---9----7------|
A|-7--------------------------|---------|-7-----------------------------------|------------------------|
E|----------------------------|---------|-------------------------------------|------------------------|

E|----------------------------|---------|-------------------------------------|------------------------|
B|----------------------------|---------|-------------------------------------|------------------------|
G|----------------------------|---------|-------------------------------7-----|-7----------------------|
D|------9----10---9----9------|-9-------|------9----10---9----10---9----------|-------10---9----7------|
A|-7--------------------------|---------|-7-----------------------------------|------------------------|
E|----------------------------|---------|-------------------------------------|------------------------|

E|----------------------------|---------|---------|
B|----------------------------|---------|---------|
G|----------------------------|---------|-%-------|
D|------9----10---9----9------|-9-------|-%-------|
A|-7--------------------------|---------|---------|
E|----------------------------|---------|---------|
Iron Maiden - The Educated Fool
Iron Maiden - The Educated Fool.gp3