Iron Maiden - The Evil That Man Do (2)

Iron Maiden - The Evil That Man Do (2)

Iron Maiden



Title: The Evil That Man Do
Album: Seventh Son Of A Seventh Son
Artist: Iron Maiden
Author: Iron Maiden

Track 1: Janick Gears (Guitar 1)
E|---------|---------|---------|---------|---------|---------|---------|---------|---------|
B|---------|---------|---------|---------|---------|---------|---------|---------|---------|
G|-%-------|-%-------|-%-------|-%-------|-%-------|-%-------|-%-------|-%-------|-%-------|
D|-%-------|-%-------|-%-------|-%-------|-%-------|-%-------|-%-------|-%-------|-%-------|
A|---------|---------|---------|---------|---------|---------|---------|---------|---------|
E|---------|---------|---------|---------|---------|---------|---------|---------|---------|

E|---------|---------|---------|---------|---------|---------|---------------------------|
B|---------|---------|---------|---------|---------|---------|---------------------------|
G|-%-------|-%-------|-%-------|-%-------|-%-------|-%-------|-%------%-----%----9---9---|
D|-%-------|-%-------|-%-------|-%-------|-%-------|-%-------|-%------%-----%----9---9---|
A|---------|---------|---------|---------|---------|---------|-------------------7---7---|
E|---------|---------|---------|---------|---------|---------|-------------------0---0---|

E|-------------------------------------------------------|-------------------------------------------------------|
B|-------------------------------------------------------|-------------------------------------------------------|
G|-9-----------------------------------------------------|-------------------------------------------------------|
D|-9-----------------------------------------------------|-------------------------------------------------------|
A|-7-----------------------------------------------------|-------------------------------------------------------|
E|-0-----X---X---X---X---X---X---X---X---X---X---X---X---|-0-----X---X---X---X---X---X---X---X---X---X---X---X---|

E|-------------------------------|-----------------------------------------|-------------------------------------------------------|
B|-------------------------------|-8----7----8----7------------------------|-------------------------------------------------------|
G|-5----X---X---X----5----5------|-7----7----7----7----9--------------9----|-9-----------------------------------------------------|
D|-5----X---X---X----5----5------|------------------------------------9----|-9-----------------------------------------------------|
A|-3----X---X---X----3----3------|--------------------------7----7----7----|-7-----------------------------------------------------|
E|-------------------------------|--------------------------0----0----0----|-0-----X---X---X---X---X---X---X---X---X---X---X---X---|

E|-------------------------------------------------------|-------------------------------|
B|-------------------------------------------------------|-------------------------------|
G|-------------------------------------------------------|-5----X---X---X----5----5------|
D|-------------------------------------------------------|-5----X---X---X----5----5------|
A|-------------------------------------------------------|-3----X---X---X----3----3------|
E|-0-----X---X---X---X---X---X---X---X---X---X---X---X---|-------------------------------|

E|-----------------------------------------|----------------------------------------------|
B|-8----7----8----7------------------------|----------------------------------------------|
G|-7----7----7----7----9--------------9----|-9--------------------------------------------|
D|------------------------------------9----|-9-----9----9---9---9----9---9---9----9---9---|
A|------------------------------------7----|-7-----7----7---7---7----7---7---7----7---7---|
E|--------------------------0----0----0----|-0-----0----0---0---0----0---0---0----0---0---|

E|--------------------------------------------------|--------------------------------------------------|
B|--------------------------------------------------|--------------------------------------------------|
G|---------------------------------------------%----|-5----5---5---5----5---5---5----5---5---5----%----|
D|-9----9---9---9----9---9---9----9---9---9----%----|-5----5---5---5----5---5---5----5---5---5----%----|
A|-7----7---7---7----7---7---7----7---7---7---------|-3----3---3---3----3---3---3----3---3---3---------|
E|-0----0---0---0----0---0---0----0---0---0---------|--------------------------------------------------|

E|-----------------------------------------|----------------------------------------------|
B|-8----7----8----7----7-------------------|----------------------------------------------|
G|-5----5----5----5----5----7----%----9----|-9--------------------------------------------|
D|--------------------------7----%----9----|-9-----9----9---9---9----9---9---9----9---9---|
A|------------------------------------7----|-7-----7----7---7---7----7---7---7----7---7---|
E|------------------------------------0----|-0-----0----0---0---0----0---0---0----0---0---|

E|--------------------------------------------------|--------------------------------------------------|
B|--------------------------------------------------|--------------------------------------------------|
G|---------------------------------------------%----|-5----5---5---5----5---5---5----5---5---5----%----|
D|-9----9---9---9----9---9---9----9---9---9----%----|-5----5---5---5----5---5---5----5---5---5----%----|
A|-7----7---7---7----7---7---7----7---7---7---------|-3----3---3---3----3---3---3----3---3---3---------|
E|-0----0---0---0----0---0---0----0---0---0---------|--------------------------------------------------|

E|-----------------------------------------|----------------------------------------------|
B|-8----7----8----7----7-------------------|----------------------------------------------|
G|-5----5----5----5----5----7----%----9----|-9--------------------------------------------|
D|--------------------------7----%----9----|-9-----9----9---9---9----9---9---9----9---9---|
A|------------------------------------7----|-7-----7----7---7---7----7---7---7----7---7---|
E|------------------------------------0----|-0-----0----0---0---0----0---0---0----0---0---|

E|--------------------------------------------------|--------------------------------------------------|
B|--------------------------------------------------|--------------------------------------------------|
G|-5----5---5---5----5---5---5----5---5---5----%----|--------------------------------------------------|
D|-5----5---5---5----5---5---5----5---5---5----%----|-5----5---5---5----5---5---5----5---5---5---------|
A|-3----3---3---3----3---3---3----3---3---3---------|-5----5---5---5----5---5---5----5---5---5---------|
E|--------------------------------------------------|-3----3---3---3----3---3---3----3---3---3----5----|

E|-----------------------------|----------------------------------------------|--------------------------------------------------|
B|-----------------------------|----------------------------------------------|--------------------------------------------------|
G|------------------------9----|-9--------------------------------------------|-5----5---5---5----5---5---5----5---5---5----%----|
D|------------------------9----|-9-----9----9---9---9----9---9---9----9---9---|-5----5---5---5----5---5---5----5---5---5----%----|
A|------------------2-----7----|-7-----7----7---7---7----7---7---7----7---7---|-3----3---3---3----3---3---3----3---3---3---------|
E|-2-----3-----5----------0----|-0-----0----0---0---0----0---0---0----0---0---|--------------------------------------------------|

E|--------------------------------------------------|-----------------------------|
B|--------------------------------------------------|-----------------------------|
G|--------------------------------------------------|-----------------------------|
D|-5----5---5---5----5---5---5----5---5---5---------|-----------------------------|
A|-5----5---5---5----5---5---5----5---5---5---------|------------------2-----3----|
E|-3----3---3---3----3---3---3----3---3---3----5----|-2-----3-----5---------------|

E|--------------------|-----------------------------------------|------------------------------------|
B|--------------------|-----------------------------------------|------------------------------------|
G|---------------5----|-5----4----2-------------------2---------|------------------------------------|
D|--------------------|----------------5----4----5--------------|-------------5---------7---9---7----|
A|-3------3-----------|------------------------------------3----|-3-----7----------7-----------------|
E|--------------------|-----------------------------------------|------------------------------------|

E|---------------------------------|------------------------------------|---------------------------------|
B|---------------------------------|------------------------------------|---------------------------------|
G|---------------------------------|------------------------------------|---------------------------------|
D|-7----5-----7----7----9----------|-------------5---------7---9---7----|-7----5-----7----7----5-----4----|
A|----------------------------7----|-7------7---------7-----------------|---------------------------------|
E|---------------------------------|------------------------------------|---------------------------------|

E|------------------------------------|---------------------------------|------------------------|
B|------------------------------------|---------------------------------|------------------------|
G|------------------------------------|---------------------------------|------------------------|
D|-4-----------5---------7---9---7----|-7----5-----7----7----9----------|-------------4-----5----|
A|-------7----------7-----------------|----------------------------7----|-7------7---------------|
E|------------------------------------|---------------------------------|------------------------|

E|---------------------------------|----------------------------------------|---------------------------------|
B|---------------------------------|----------------------------------------|---------------------------------|
G|------------4----4----7-----7----|-7-----%--------------------------------|---------------------------------|
D|-5----7--------------------------|-------%---------5---------7---9---7----|-7----5-----7----7----9----------|
A|---------------------------------|------------7---------7-----------------|----------------------------7----|
E|---------------------------------|----------------------------------------|---------------------------------|

E|------------------------------------|---------------------------------|------------------------------------|
B|------------------------------------|---------------------------------|------------------------------------|
G|------------------------------------|---------------------------------|------------------------------------|
D|-------------5---------7---9---7----|-7----5-----7----7----5-----4----|-4-----------5---------7---9---7----|
A|-7------7---------7-----------------|---------------------------------|-------7----------7-----------------|
E|------------------------------------|---------------------------------|------------------------------------|

E|---------------------------------|---------------------------------|-------------------------------------|
B|---------------------------------|---------------------------------|-------------------------------------|
G|---------------------------------|----------------------------4----|-4----5----7-----7----%---------9----|
D|-7----5-----7----7----9----------|------4-----5----5----7----------|----------------------%---------9----|
A|----------------------------7----|-7-------------------------------|--------------------------------7----|
E|---------------------------------|---------------------------------|---------------------------0----0----|

E|----------------------------------------------|-----------------------------------------------|
B|----------------------------------------------|-----------------------------------------------|
G|-9--------------------------------------------|--------------------------------7----7----5----|
D|-9-----9----9---9---9----9---9---9----9---9---|-9----9---9---9----9---9---9----7----7----5----|
A|-7-----7----7---7---7----7---7---7----7---7---|-7----7---7---7----7---7---7----5----5----3----|
E|-0-----0----0---0---0----0---0---0----0---0---|-0----0---0---0----0---0---0-------------------|

E|--------------------------------------------------|-----------------------------------------------|
B|--------------------------------------------------|-----------------------------------------------|
G|-5----5---5---5----5---5---5----5---5---5----7----|-7----7---7---7----7---7---7----%----10---9----|
D|-5----5---5---5----5---5---5----5---5---5----7----|-7----7---7---7----7---7---7----%----10---9----|
A|-3----3---3---3----3---3---3----3---3---3----5----|-5----5---5---5----5---5---5---------8----7----|
E|--------------------------------------------------|-----------------------------------------------|

E|----------------------------------------------|-----------------------------------------------|
B|----------------------------------------------|-----------------------------------------------|
G|-9--------------------------------------------|--------------------------------7----7----5----|
D|-9-----9----9---9---9----9---9---9----9---9---|-9----9---9---9----9---9---9----7----7----5----|
A|-7-----7----7---7---7----7---7---7----7---7---|-7----7---7---7----7---7---7----5----5----3----|
E|-------0----0---0---0----0---0---0----0---0---|-0----0---0---0----0---0---0-------------------|

E|--------------------------------------------------|-----------------------------------------------|
B|--------------------------------------------------|-----------------------------------------------|
G|-5----5---5---5----5---5---5----5---5---5----2----|-2----2---2---2----2---2---2----%----10---9----|
D|-5----5---5---5----5---5---5----5---5---5----2----|-2----2---2---2----2---2---2----%----10---9----|
A|-3----3---3---3----3---3---3----3---3---3----0----|-0----0---0---0----0---0---0---------8----7----|
E|--------------------------------------------------|-----------------------------------------------|

E|----------------------------------------------|-----------------------------------------------|
B|----------------------------------------------|-----------------------------------------------|
G|-9--------------------------------------------|--------------------------------7----7----5----|
D|-9-----9----9---9---9----9---9---9----9---9---|-9----9---9---9----9---9---9----7----7----5----|
A|-7-----7----7---7---7----7---7---7----7---7---|-7----7---7---7----7---7---7----5----5----3----|
E|-------0----0---0---0----0---0---0----0---0---|-0----0---0---0----0---0---0-------------------|

E|--------------------------------------------------|-----------------------------------------------|
B|--------------------------------------------------|-----------------------------------------------|
G|-5----5---5---5----5---5---5----5---5---5----7----|-7----7---7---7----7---7---7----%----10---9----|
D|-5----5---5---5----5---5---5----5---5---5----7----|-7----7---7---7----7---7---7----%----10---9----|
A|-3----3---3---3----3---3---3----3---3---3----5----|-5----5---5---5----5---5---5---------8----7----|
E|--------------------------------------------------|-----------------------------------------------|

E|----------------------------------------------|-----------------------------------------------|
B|----------------------------------------------|-----------------------------------------------|
G|-9--------------------------------------------|--------------------------------7----7----5----|
D|-9-----9----9---9---9----9---9---9----9---9---|-9----9---9---9----9---9---9----7----7----5----|
A|-7-----7----7---7---7----7---7---7----7---7---|-7----7---7---7----7---7---7----5----5----3----|
E|-------0----0---0---0----0---0---0----0---0---|-0----0---0---0----0---0---0-------------------|

E|----------------------------|-------------------|----------------------------------------------|
B|----------------------------|-------------------|----------------------------------------------|
G|-5---------------------2----|-2-------2----9----|-9--------------------------------------------|
D|-5---------------------2----|-2-------2----9----|-9-----9----9---9---9----9---9---9----9---9---|
A|-3---------------------0----|-0-------0----7----|-7-----7----7---7---7----7---7---7----7---7---|
E|--------X----X----X---------|--------------0----|-0-----0----0---0---0----0---0---0----0---0---|

E|--------------------------------------------------|--------------------------------------------------|
B|--------------------------------------------------|--------------------------------------------------|
G|---------------------------------------------%----|-5----5---5---5----5---5---5----5---5---5----%----|
D|-9----9---9---9----9---9---9----9---9---9----%----|-5----5---5---5----5---5---5----5---5---5----%----|
A|-7----7---7---7----7---7---7----7---7---7---------|-3----3---3---3----3---3---3----3---3---3---------|
E|-0----0---0---0----0---0---0----0---0---0---------|--------------------------------------------------|

E|-----------------------------------------|----------------------------------------------|
B|-8----7----8----7----7-------------------|----------------------------------------------|
G|-5----5----5----5----5----7----%----9----|-9--------------------------------------------|
D|--------------------------7----%----9----|-9-----9----9---9---9----9---9---9----9---9---|
A|------------------------------------7----|-7-----7----7---7---7----7---7---7----7---7---|
E|------------------------------------0----|-0-----0----0---0---0----0---0---0----0---0---|

E|--------------------------------------------------|--------------------------------------------------|
B|--------------------------------------------------|--------------------------------------------------|
G|---------------------------------------------%----|-5----5---5---5----5---5---5----5---5---5----%----|
D|-9----9---9---9----9---9---9----9---9---9----%----|-5----5---5---5----5---5---5----5---5---5----%----|
A|-7----7---7---7----7---7---7----7---7---7---------|-3----3---3---3----3---3---3----3---3---3---------|
E|-0----0---0---0----0---0---0----0---0---0---------|--------------------------------------------------|

E|-----------------------------------------|----------------------------------------------|
B|-8----7----8----7----7-------------------|----------------------------------------------|
G|-5----5----5----5----5----7----%----9----|-9--------------------------------------------|
D|--------------------------7----%----9----|-9-----9----9---9---9----9---9---9----9---9---|
A|------------------------------------7----|-7-----7----7---7---7----7---7---7----7---7---|
E|------------------------------------0----|-0-----0----0---0---0----0---0---0----0---0---|

E|--------------------------------------------------|--------------------------------------------------|
B|--------------------------------------------------|--------------------------------------------------|
G|-5----5---5---5----5---5---5----5---5---5----%----|--------------------------------------------------|
D|-5----5---5---5----5---5---5----5---5---5----%----|-5----5---5---5----5---5---5----5---5---5---------|
A|-3----3---3---3----3---3---3----3---3---3---------|-5----5---5---5----5---5---5----5---5---5---------|
E|--------------------------------------------------|-3----3---3---3----3---3---3----3---3---3----5----|

E|-----------------------------|----------------------------------------------|--------------------------------------------------|
B|-----------------------------|----------------------------------------------|--------------------------------------------------|
G|------------------------9----|-9--------------------------------------------|-5----5---5---5----5---5---5----5---5---5----%----|
D|------------------------9----|-9-----9----9---9---9----9---9---9----9---9---|-5----5---5---5----5---5---5----5---5---5----%----|
A|------------------2-----7----|-7-----7----7---7---7----7---7---7----7---7---|-3----3---3---3----3---3---3----3---3---3---------|
E|-2-----3-----5----------0----|-0-----0----0---0---0----0---0---0----0---0---|--------------------------------------------------|

E|--------------------------------------------------|-----------------------------|
B|--------------------------------------------------|-----------------------------|
G|--------------------------------------------------|-----------------------------|
D|-5----5---5---5----5---5---5----5---5---5---------|-----------------------------|
A|-5----5---5---5----5---5---5----5---5---5---------|------------------2-----3----|
E|-3----3---3---3----3---3---3----3---3---3----5----|-2-----3-----5---------------|

E|--------------------|-----------------------------------------|------------------------------------|
B|--------------------|-----------------------------------------|------------------------------------|
G|---------------5----|-5----4----2-------------------2---------|------------------------------------|
D|--------------------|----------------5----4----5--------------|-------------5---------7---9---7----|
A|-3------3-----------|------------------------------------3----|-3-----7----------7-----------------|
E|--------------------|-----------------------------------------|------------------------------------|

E|---------------------------------|------------------------------------|---------------------------------|
B|---------------------------------|------------------------------------|---------------------------------|
G|---------------------------------|------------------------------------|---------------------------------|
D|-7----5-----7----7----9----------|-------------5---------7---9---7----|-7----5-----7----7----5-----4----|
A|----------------------------7----|-7------7---------7-----------------|---------------------------------|
E|---------------------------------|------------------------------------|---------------------------------|

E|------------------------------------|---------------------------------|---------------------------------|
B|------------------------------------|---------------------------------|---------------------------------|
G|------------------------------------|---------------------------------|----------------------------4----|
D|-4-----------5---------7---9---7----|-7----5-----7----7----9----------|------4-----5----5----7----------|
A|-------7----------7-----------------|----------------------------7----|-7-------------------------------|
E|------------------------------------|---------------------------------|---------------------------------|

E|-------------------------------------|----------------------------------------------|
B|-------------------------------------|----------------------------------------------|
G|-4----5----7-----7----%---------9----|-9--------------------------------------------|
D|----------------------%---------9----|-9-----9----9---9---9----9---9---9----9---9---|
A|--------------------------------7----|-7-----7----7---7---7----7---7---7----7---7---|
E|---------------------------0----0----|-0-----0----0---0---0----0---0---0----0---0---|

E|-----------------------------------------------|--------------------------------------------------|
B|-----------------------------------------------|--------------------------------------------------|
G|--------------------------------7----7----5----|-5----5---5---5----5---5---5----5---5---5----7----|
D|-9----9---9---9----9---9---9----7----7----5----|-5----5---5---5----5---5---5----5---5---5----7----|
A|-7----7---7---7----7---7---7----5----5----3----|-3----3---3---3----3---3---3----3---3---3----5----|
E|-0----0---0---0----0---0---0-------------------|--------------------------------------------------|

E|-----------------------------------------------|----------------------------------------------|
B|-----------------------------------------------|----------------------------------------------|
G|-7----7---7---7----7---7---7----%----10---9----|-9--------------------------------------------|
D|-7----7---7---7----7---7---7----%----10---9----|-9-----9----9---9---9----9---9---9----9---9---|
A|-5----5---5---5----5---5---5---------8----7----|-7-----7----7---7---7----7---7---7----7---7---|
E|-----------------------------------------------|-------0----0---0---0----0---0---0----0---0---|

E|-----------------------------------------------|--------------------------------------------------|
B|-----------------------------------------------|--------------------------------------------------|
G|--------------------------------7----7----5----|-5----5---5---5----5---5---5----5---5---5----2----|
D|-9----9---9---9----9---9---9----7----7----5----|-5----5---5---5----5---5---5----5---5---5----2----|
A|-7----7---7---7----7---7---7----5----5----3----|-3----3---3---3----3---3---3----3---3---3----0----|
E|-0----0---0---0----0---0---0-------------------|--------------------------------------------------|

E|-----------------------------------------------|----------------------------------------------|
B|-----------------------------------------------|----------------------------------------------|
G|-2----2---2---2----2---2---2----%----10---9----|-9--------------------------------------------|
D|-2----2---2---2----2---2---2----%----10---9----|-9-----9----9---9---9----9---9---9----9---9---|
A|-0----0---0---0----0---0---0---------8----7----|-7-----7----7---7---7----7---7---7----7---7---|
E|-----------------------------------------------|-------0----0---0---0----0---0---0----0---0---|

E|-----------------------------------------------|--------------------------------------------------|
B|-----------------------------------------------|--------------------------------------------------|
G|--------------------------------7----7----5----|-5----5---5---5----5---5---5----5---5---5----7----|
D|-9----9---9---9----9---9---9----7----7----5----|-5----5---5---5----5---5---5----5---5---5----7----|
A|-7----7---7---7----7---7---7----5----5----3----|-3----3---3---3----3---3---3----3---3---3----5----|
E|-0----0---0---0----0---0---0-------------------|--------------------------------------------------|

E|-----------------------------------------------|----------------------------------------------|
B|-----------------------------------------------|----------------------------------------------|
G|-7----7---7---7----7---7---7----%----10---9----|-9--------------------------------------------|
D|-7----7---7---7----7---7---7----%----10---9----|-9-----9----9---9---9----9---9---9----9---9---|
A|-5----5---5---5----5---5---5---------8----7----|-7-----7----7---7---7----7---7---7----7---7---|
E|-----------------------------------------------|-------0----0---0---0----0---0---0----0---0---|

E|-----------------------------------------------|----------------------------|-------------------|
B|-----------------------------------------------|----------------------------|-------------------|
G|--------------------------------7----7----5----|-5---------------------2----|-2-------2----9----|
D|-9----9---9---9----9---9---9----7----7----5----|-5---------------------2----|-2-------2----9----|
A|-7----7---7---7----7---7---7----5----5----3----|-3---------------------0----|-0-------0----7----|
E|-0----0---0---0----0---0---0-------------------|--------X----X----X---------|--------------0----|

E|--------------------------------------------------|-----------------------------------------------|
B|--------------------------------------------------|-----------------------------------------------|
G|-9---%----------------------------------%---------|---------------------------%----9----%----9----|
D|-9---%---2----4---5---4---2--------2----%----2----|-4---5---4---2--------2----%----9----%----9----|
A|-7----------------------------5-------------------|-----------------5--------------7---------7----|
E|-0------------------------------------------------|--------------------------------0---------0----|

E|-----------------------------------------------|-----------------------------------------------|
B|-----------------------------------------------|-----------------------------------------------|
G|-%-----------------------------------%---------|---------------------------%---------%---------|
D|-%----2----4---5---4---2--------2----%----2----|-4---5---4---2--------2----%----2----%----2----|
A|---------------------------5-------------------|-----------------5-----------------------------|
E|-----------------------------------------------|-----------------------------------------------|

E|-----------------------------------------------|----------------------------------|
B|-----------------------------------------------|----------------------------------|
G|-------------------------------------%---------|----------------------------------|
D|-2----2----4---5---4---2--------2----%----2----|-4---5---4---2--------2----2------|
A|---------------------------5-------------------|-----------------5----------------|
E|-----------------------------------------------|----------------------------------|

E|--------------------------------------------------|----------------------------------|
B|--------------------------------------------------|----------------------------------|
G|-----%----------------------------------%---------|----------------------------------|
D|-2---%---2----4---5---4---2--------2----%----2----|-4---5---4---2--------2----2------|
A|------------------------------5-------------------|-----------------5----------------|
E|--------------------------------------------------|----------------------------------|

E|-----------------------------------------------|----------------------------------|
B|-----------------------------------------------|----------------------------------|
G|-------------------------------------%---------|----------------------------------|
D|-2----2----4---5---4---2--------2----%----2----|-4---5---4---2--------2----2------|
A|---------------------------5-------------------|-----------------5----------------|
E|-----------------------------------------------|----------------------------------|

E|--------------------------------------------------|-------------------------------------------|
B|--------------------------------------------------|--------------------------------------17---|
G|-----%----------------------------------%---------|---------------------------------%---------|
D|-2---%---2----4---5---4---2--------2----%----2----|-4---5---4---2--------2----2-----%---------|
A|------------------------------5-------------------|-----------------5-------------------------|
E|--------------------------------------------------|-------------------------------------------|

E|------------------14---16---17---|-17---16--14--------------16---|-16----------------------------------|
B|-17-----17---17------------------|--------------17-----17--------|-------17----------17----------------|
G|---------------------------------|-------------------------------|-------------16----------16----------|
D|---------------------------------|-------------------------------|-------------------------------16----|
A|---------------------------------|-------------------------------|-------------------------------------|
E|---------------------------------|-------------------------------|-------------------------------------|

E|------------------------------------|---------------------------------------------2---3---|
B|------------------------------------|-------------------2---3--------3---5---2------------|
G|-16--------------------%----1---2---|------2---4---2------------4-------------------------|
D|------16---------------%------------|-4---------------------------------------------------|
A|-----------16----16-----------------|-----------------------------------------------------|
E|------------------------------------|-----------------------------------------------------|

E|------5----2---5---2------------------------|----------------12---12----------|-------------------------------|
B|-5---------------------2--------------------|------10--------------------9----|-9----10-----------------------|
G|----------------------------9-----11--11----|-11--------11--------------------|-----------9------9----9---11--|
D|--------------------------------------------|---------------------------------|-------------------------------|
A|--------------------------------------------|---------------------------------|-------------------------------|
E|--------------------------------------------|---------------------------------|-------------------------------|

E|-------------------12----------|-------------------12----------|-----------------12----------|
B|-------10---------------12-----|-------10---------------12-----|------10----------------12---|
G|-11----------11----------------|-11----------11----------------|-11--------11----------------|
D|-------------------------------|-------------------------------|-----------------------------|
A|-------------------------------|-------------------------------|-----------------------------|
E|-------------------------------|-------------------------------|-----------------------------|

E|-------------------16---16---|-16----------------------------------|----------------------------19---|
B|-12-----12-------------------|-------17----------17----------------|---------------------------------|
G|-------------%---------------|-------------16----------16----------|-16--------------------%---------|
D|-------------%---------------|-------------------------------16----|------16---------------%---------|
A|-----------------------------|-------------------------------------|-----------16----16--------------|
E|-----------------------------|-------------------------------------|---------------------------------|

E|-19----17---16---17---16-------------|---------------------------------|------------------------------------|
B|---------------------------17--------|---------------------------------|------------------------------------|
G|--------------------------------16---|-16----16----16--16----16---%----|-%----------------------------------|
D|-------------------------------------|----------------------------%----|-%-----------5---------7---9---7----|
A|-------------------------------------|---------------------------------|--------7---------7-----------------|
E|-------------------------------------|---------------------------------|------------------------------------|

E|---------------------------------|------------------------------------|---------------------------------|
B|---------------------------------|------------------------------------|---------------------------------|
G|---------------------------------|------------------------------------|---------------------------------|
D|-7----5-----7----7----9----------|-------------5---------7---9---7----|-7----5-----7----7----5-----4----|
A|----------------------------7----|-7------7---------7-----------------|---------------------------------|
E|---------------------------------|------------------------------------|---------------------------------|

E|------------------------------------|---------------------------------|---------------------------------|
B|------------------------------------|---------------------------------|---------------------------------|
G|------------------------------------|---------------------------------|----------------------------4----|
D|-4-----------5---------7---9---7----|-7----5-----7----7----9----------|------4-----5----5----7----------|
A|-------7----------7-----------------|----------------------------7----|-7-------------------------------|
E|------------------------------------|---------------------------------|---------------------------------|

E|-------------------------------------|----------------------------------------------|
B|-------------------------------------|----------------------------------------------|
G|-4----5----7-----7----%---------9----|-9--------------------------------------------|
D|----------------------%---------9----|-9-----9----9---9---9----9---9---9----9---9---|
A|--------------------------------7----|-7-----7----7---7---7----7---7---7----7---7---|
E|---------------------------0----0----|-0-----0----0---0---0----0---0---0----0---0---|

E|-----------------------------------------------|--------------------------------------------------|
B|-----------------------------------------------|--------------------------------------------------|
G|--------------------------------7----7----5----|-5----5---5---5----5---5---5----5---5---5----7----|
D|-9----9---9---9----9---9---9----7----7----5----|-5----5---5---5----5---5---5----5---5---5----7----|
A|-7----7---7---7----7---7---7----5----5----3----|-3----3---3---3----3---3---3----3---3---3----5----|
E|-0----0---0---0----0---0---0-------------------|--------------------------------------------------|

E|-----------------------------------------------|----------------------------------------------|
B|-----------------------------------------------|----------------------------------------------|
G|-7----7---7---7----7---7---7----%----10---9----|-9--------------------------------------------|
D|-7----7---7---7----7---7---7----%----10---9----|-9-----9----9---9---9----9---9---9----9---9---|
A|-5----5---5---5----5---5---5---------8----7----|-7-----7----7---7---7----7---7---7----7---7---|
E|-----------------------------------------------|-------0----0---0---0----0---0---0----0---0---|

E|-----------------------------------------------|--------------------------------------------------|
B|-----------------------------------------------|--------------------------------------------------|
G|--------------------------------7----7----5----|-5----5---5---5----5---5---5----5---5---5----2----|
D|-9----9---9---9----9---9---9----7----7----5----|-5----5---5---5----5---5---5----5---5---5----2----|
A|-7----7---7---7----7---7---7----5----5----3----|-3----3---3---3----3---3---3----3---3---3----0----|
E|-0----0---0---0----0---0---0-------------------|--------------------------------------------------|

E|-----------------------------------------------|----------------------------------------------|
B|-----------------------------------------------|----------------------------------------------|
G|-2----2---2---2----2---2---2----%----10---9----|-9--------------------------------------------|
D|-2----2---2---2----2---2---2----%----10---9----|-9-----9----9---9---9----9---9---9----9---9---|
A|-0----0---0---0----0---0---0---------8----7----|-7-----7----7---7---7----7---7---7----7---7---|
E|-----------------------------------------------|-------0----0---0---0----0---0---0----0---0---|

E|-----------------------------------------------|--------------------------------------------------|
B|-----------------------------------------------|--------------------------------------------------|
G|--------------------------------7----7----5----|-5----5---5---5----5---5---5----5---5---5----7----|
D|-9----9---9---9----9---9---9----7----7----5----|-5----5---5---5----5---5---5----5---5---5----7----|
A|-7----7---7---7----7---7---7----5----5----3----|-3----3---3---3----3---3---3----3---3---3----5----|
E|-0----0---0---0----0---0---0-------------------|--------------------------------------------------|

E|-----------------------------------------------|----------------------------------------------|
B|-----------------------------------------------|----------------------------------------------|
G|-7----7---7---7----7---7---7----%----10---9----|-9--------------------------------------------|
D|-7----7---7---7----7---7---7----%----10---9----|-9-----9----9---9---9----9---9---9----9---9---|
A|-5----5---5---5----5---5---5---------8----7----|-7-----7----7---7---7----7---7---7----7---7---|
E|-----------------------------------------------|-------0----0---0---0----0---0---0----0---0---|

E|-----------------------------------------------|----------------------------|-------------------|
B|-----------------------------------------------|----------------------------|-------------------|
G|--------------------------------7----7----5----|-5---------------------2----|-2-------2----9----|
D|-9----9---9---9----9---9---9----7----7----5----|-5---------------------2----|-2-------2----9----|
A|-7----7---7---7----7---7---7----5----5----3----|-3---------------------0----|-0-------0----7----|
E|-0----0---0---0----0---0---0-------------------|--------X----X----X---------|--------------0----|

E|-------------------|----------------------15----12---|-12----------------|---------------------------------|
B|-------------------|------------12---12--------------|---------15---15---|-15----13--12--------------------|
G|-9-------11---12---|-12---14-------------------------|-------------------|-----------------14---12----14---|
D|-9-----------------|---------------------------------|-------------------|---------------------------------|
A|-7-----------------|---------------------------------|-------------------|---------------------------------|
E|-0-----------------|---------------------------------|-------------------|---------------------------------|

E|------------------------|----------------------------|------15--------------15---------|
B|-------------15----15---|-15-----15-------------15---|-15---------15---15---------15---|
G|-14-----14---------14---|-14----------%----%---------|---------------------------------|
D|------------------------|-------------%----%---------|---------------------------------|
A|------------------------|----------------------------|---------------------------------|
E|------------------------|----------------------------|---------------------------------|

E|---------------------------------|--------------------------------------------------|
B|-15---15---15----15---15---------|--------------------------------------------------|
G|---------------------------%-----|-%---%----------------------------------%---------|
D|---------------------------%-----|-%---%---2----4---5---4---2--------2----%----2----|
A|---------------------------------|------------------------------5-------------------|
E|---------------------------------|--------------------------------------------------|

E|-----------------------------------------------|--------------------|
B|-----------------------------------------------|--------------------|
G|---------------------------%---------%---------|-------%-----%------|
D|-4---5---4---2--------2----%----2----%----2----|-2-----%-----%------|
A|-----------------5-----------------------------|--------------------|
E|-----------------------------------------------|--------------------|
Iron Maiden - The Evil That Man Do (2)
Iron Maiden - The Evil That Man Do (2).gp3