Iron Maiden - The Evil That Men Do (2)

Iron Maiden



Title: The Evil That Men Do
Album: Seventh Son Of A Seventh Son
Artist: Iron Maiden
Author: Juha Kerän

Track 1: Solo guitar
E|-------------------------------------|-------------------------|-------------------------------------|
B|---------------------------10---10---|-10---------10----12-----|-12----12------------------10---10---|
G|-%-----%----7----12---9--------------|------12-----------------|------------7----12---9--------------|
D|-%-----%-----------------------------|-------------------------|-------------------------------------|
A|-------------------------------------|-------------------------|-------------------------------------|
E|-------------------------------------|-------------------------|-------------------------------------|

E|-----------------------------|-------------------------------------|-----------------------------|
B|-10---------10----12---------|---------------------------10---10---|-10---------10----12---10----|
G|------12---------------9-----|-9-----9----7----12---9--------------|------12---------------------|
D|-----------------------------|-------------------------------------|-----------------------------|
A|-----------------------------|-------------------------------------|-----------------------------|
E|-----------------------------|-------------------------------------|-----------------------------|

E|---------------------------|--------------------|-------------------------------------|
B|-10-----10----10-----------|-------8------8-----|-8-----8-------------------10---10---|
G|-------------------7---9---|-7------------------|------------7----12---9--------------|
D|---------------------------|--------------------|-------------------------------------|
A|---------------------------|--------------------|-------------------------------------|
E|---------------------------|--------------------|-------------------------------------|

E|-----------------------------|-------------------------------------|-----------------------------|
B|-10---------10----12---------|---------------------------10---10---|-10---------10----12---12----|
G|------12---------------9-----|-9-----9----7----12---9--------------|------12---------------------|
D|-----------------------------|-------------------------------------|-----------------------------|
A|-----------------------------|-------------------------------------|-----------------------------|
E|-----------------------------|-------------------------------------|-----------------------------|

E|-------------------------------------|-----------------------------|---------|---------------------------|
B|-12----12------------------10---10---|-10---------10----12---------|---------|---------------------------|
G|------------7----12---9--------------|------12---------------9-----|-9-------|-9------%-----%------------|
D|-------------------------------------|-----------------------------|---------|--------%-----%----9---9---|
A|-------------------------------------|-----------------------------|---------|-------------------7---7---|
E|-------------------------------------|-----------------------------|---------|---------------------------|

E|-------------------------------------------------|-------------------------------------------------|
B|-------------------------------------------------|-------------------------------------------------|
G|-----------%------------%------------%-----------|-----------%------------%------------%-----------|
D|-9-----9---%---7----7---%---12---12--%---9---9---|-9-----9---%---7----7---%---12---12--%---5---5---|
A|-7-----7-------5----5-------10---10------7---7---|-7-----7-------5----5-------10---10------3---3---|
E|-------------------------------------------------|-------------------------------------------------|

E|------------------------------|------------------------------------|-------------------------------------------------|
B|------------------------------|-8----7----8----7-----5-------------|-------------------------------------------------|
G|-----------%--------------%---|-5----5----5----5-----5-------------|-----------%------------%------------%-----------|
D|-5-----5---%---5------5---%---|----------------------------9---9---|-9-----9---%---7----7---%---12---12--%---9---9---|
A|-3-----3-------3------3-------|----------------------------7---7---|-7-----7-------5----5-------10---10------7---7---|
E|------------------------------|------------------------------------|-------------------------------------------------|

E|-------------------------------------------------|------------------------------|
B|-------------------------------------------------|------------------------------|
G|-----------%------------%------------%-----------|-----------%--------------%---|
D|-9-----9---%---7----7---%---12---12--%---5---5---|-5-----5---%---5------5---%---|
A|-7-----7-------5----5-------10---10------3---3---|-3-----3-------3------3-------|
E|-------------------------------------------------|------------------------------|

E|------------------------------------|-----------------------------------------------------|
B|-8----7----8----7-----5-------------|-----------------------------------------------------|
G|-5----5----5----5-----5-------------|-----------------------------------------------------|
D|------------------------------------|-----------------------------------------------------|
A|----------------------------7---7---|-7----7---7---7----7---7---7----7---7---7----7---7---|
E|----------------------------0---0---|-0----0---0---0----0---0---0----0---0---0----0---0---|

E|-----------------------------------------------------|-----------------------------------------------------|
B|-----------------------------------------------------|-----------------------------------------------------|
G|-----------------------------------------------------|-----------------------------------------------------|
D|-----------------------------------------------------|-----------------------------------------------------|
A|-7----7---7---7----7---7---7----7---7---7----7---7---|-3----3---3---3----3---3---3----3---3---3----3---3---|
E|-0----0---0---0----0---0---0----0---0---0----0---0---|-3----3---3---3----3---3---3----3---3---3----3---3---|

E|---------------------------------------|-----------------------------------------------------|
B|---------------------------------------|-----------------------------------------------------|
G|---------------------------------------|-----------------------------------------------------|
D|---------------------------------------|-----------------------------------------------------|
A|-3----3---3---3----3-----5-----7---7---|-7----7---7---7----7---7---7----7---7---7----7---7---|
E|-3----3---3---3----3-----5-----0---0---|-0----0---0---0----0---0---0----0---0---0----0---0---|

E|-----------------------------------------------------|-----------------------------------------------------|
B|-----------------------------------------------------|-----------------------------------------------------|
G|-----------------------------------------------------|-----------------------------------------------------|
D|-----------------------------------------------------|-----------------------------------------------------|
A|-7----7---7---7----7---7---7----7---7---7----7---7---|-3----3---3---3----3---3---3----3---3---3----3---3---|
E|-0----0---0---0----0---0---0----0---0---0----0---0---|-3----3---3---3----3---3---3----3---3---3----3---3---|

E|------------------------------------|-----------------------------------------------------|
B|------------------------------------|-----------------------------------------------------|
G|------------------------------------|-----------------------------------------------------|
D|-------------------------------9----|-9----9---9---9----9---9---9----9---9---9----9---9---|
A|-3----3---3---3----3-----5-----7----|-7----7---7---7----7---7---7----7---7---7----7---7---|
E|-3----3---3---3----3-----5----------|-----------------------------------------------------|

E|-----------------------------------------------------|-----------------------------------------------------|
B|-----------------------------------------------------|-----------------------------------------------------|
G|-----------------------------------------------------|-----------------------------------------------------|
D|-5----5---5---5----5---5---5----5---5---5----5---5---|-----------------------------------------------------|
A|-3----3---3---3----3---3---3----3---3---3----3---3---|-5----5---5---5----5---5---5----5---5---5----5---5---|
E|-----------------------------------------------------|-3----3---3---3----3---3---3----3---3---3----3---3---|

E|------------------------------------|-----------------------------------------------------|
B|------------------------------------|-----------------------------------------------------|
G|------------------------------------|-----------------------------------------------------|
D|-------------------------7-----9----|-9----9---9---9----9---9---9----9---9---9----9---9---|
A|-5----5---5---5----5-----5-----7----|-7----7---7---7----7---7---7----7---7---7----7---7---|
E|-3----3---3---3----3----------------|-----------------------------------------------------|

E|-----------------------------------------------------|-----------------------------------------------------|
B|-----------------------------------------------------|-----------------------------------------------------|
G|-----------------------------------------------------|-----------------------------------------------------|
D|-5----5---5---5----5---5---5----5---5---5----5---5---|-----------------------------------------------------|
A|-3----3---3---3----3---3---3----3---3---3----3---3---|-5----5---5---5----5---5---5----5---5---5----5---5---|
E|-----------------------------------------------------|-3----3---3---3----3---3---3----3---3---3----3---3---|

E|------------------------------------|--------------------------------------------------|
B|------------------------------------|--------------------------------------------------|
G|------------------------------------|---------------------------------------------5----|
D|-------------------------------5----|-5----5---5---5----5---5---5----5---5---5----5----|
A|-5----5---5---5----5-----5-----3----|-3----3---3---3----3---3---3----3---3---3---------|
E|-3----3---3---3----3-----3----------|--------------------------------------------------|

E|-----------------------------------------|-------------------------------------|-----------------------------|
B|-----------------------------------------|---------------------------10---10---|-10---------10----10---------|
G|-5----4----2-------------------2---------|------------7----12---9--------------|------12----------------9----|
D|-5--------------5----4----5--------------|-------------------------------------|-----------------------------|
A|------------------------------------3----|-3-----3-----------------------------|-----------------------------|
E|-----------------------------------------|-------------------------------------|-----------------------------|

E|-------------------------------------|-----------------------------|-------------------------------------|
B|---------------------------10---10---|-10---------10----10----10---|-10----10------------------10---10---|
G|-9-----9----7----12---9--------------|------12---------------------|------------7----12---9--------------|
D|-------------------------------------|-----------------------------|-------------------------------------|
A|-------------------------------------|-----------------------------|-------------------------------------|
E|-------------------------------------|-----------------------------|-------------------------------------|

E|-----------------------------|--------------------7----|-7----8-----10----12----12---|
B|-10---------10----10---------|--------8-----10---------|-----------------------------|
G|------12----------------9----|-9-----------------------|-----------------------------|
D|-----------------------------|-------------------------|-----------------------------|
A|-----------------------------|-------------------------|-----------------------------|
E|-----------------------------|-------------------------|-----------------------------|

E|-12----12----------------------------|-----------------------------|-------------------------------------|
B|---------------------------10---10---|-10---------10----10---------|---------------------------10---10---|
G|------------7----12---9--------------|------12----------------9----|-9-----9----7----12---9--------------|
D|-------------------------------------|-----------------------------|-------------------------------------|
A|-------------------------------------|-----------------------------|-------------------------------------|
E|-------------------------------------|-----------------------------|-------------------------------------|

E|-----------------------------|-------------------------------------|-----------------------------|
B|-10---------10----10----10---|-10----10------------------10---10---|-10---------10----10---------|
G|------12---------------------|------------7----12---9--------------|------12----------------9----|
D|-----------------------------|-------------------------------------|-----------------------------|
A|-----------------------------|-------------------------------------|-----------------------------|
E|-----------------------------|-------------------------------------|-----------------------------|

E|-----------------------------|------8-----10----12---------|-----------------------------|
B|------------------10----12---|-12--------------------------|-----------------------------|
G|-9----11----12---------------|-----------------------------|------------------%----------|
D|-----------------------------|-----------------------7-----|-7----------------%---7------|
A|-----------------------------|-----------------------------|-------10---7----------------|
E|-----------------------------|-----------------------------|-----------------------------|

E|-------------------------------------|------------------------|--------------------|
B|-------------------------------------|------------------------|--------------------|
G|-------------%---------%-------------|------------------------|--------------------|
D|-7-----------%---------%-------------|------------------------|--------------7-----|
A|-------10--------7---------5----3----|-3------3-----3----5----|-5------5-----------|
E|--------------------------------3----|-3------3-----3----5----|-5------5-----------|

E|-----------------------------|-------------------------------------|------------------------|
B|-----------------------------|-------------------------------------|------------------------|
G|------------------%----------|-------------%---------%-------------|------------------------|
D|-7----------------%---7------|-7-----------%---------%--------7----|-7------7-----7----7----|
A|-------10---7----------------|-------10--------7---------5---------|------------------------|
E|-----------------------------|-------------------------------------|------------------------|

E|--------------------|-----------------------------|-------------------------------------|
B|--------------------|-----------------------------|-------------------------------------|
G|--------------------|------------------%----------|-------------%---------%-------------|
D|-7------7-----7-----|-7----------------%---7------|-7-----------%---------%-------------|
A|--------------------|-------10---7----------------|-------10--------7---------5----3----|
E|--------------------|-----------------------------|--------------------------------3----|

E|------------------------|--------------------|-----------------------------|-------------------------------------|
B|------------------------|--------------------|-----------------------------|-------------------------------------|
G|------------------------|--------------------|------------------%----------|-------------%---------%-------------|
D|------------------------|--------------7-----|-7----------------%---7------|-7-----------%---------%--------7----|
A|-3------3-----3----5----|-5------5-----------|-------10---7----------------|-------10--------7---------5---------|
E|-3------3-----3----5----|-5------5-----------|-----------------------------|-------------------------------------|

E|------------------------|------------------------|-----------------------------------------------------|
B|------------------------|------------------------|-----------------------------------------------------|
G|------------------------|------------------------|-----------------------------------------------------|
D|-7------7-----7----7----|-7------7-----7---------|-----------------------------------------------------|
A|------------------------|-------------------7----|-7----7---7---7----7---7---7----7---7---7----7---7---|
E|------------------------|-------------------0----|-0----0---0---0----0---0---0----0---0---0----0---0---|

E|-----------------------------------------------------|-----------------------------------------------------|
B|-----------------------------------------------------|-----------------------------------------------------|
G|-----------------------------------------------------|-----------------------------------------------------|
D|-----------------------------------------------------|-----------------------------------------------------|
A|-7----7---7---7----7---7---7----7---7---7----7---7---|-3----3---3---3----3---3---3----3---3---3----3---3---|
E|-0----0---0---0----0---0---0----0---0---0----0---0---|-3----3---3---3----3---3---3----3---3---3----3---3---|

E|---------------------------------------|-----------------------------------------------------|
B|---------------------------------------|-----------------------------------------------------|
G|---------------------------------------|-----------------------------------------------------|
D|---------------------------------------|-----------------------------------------------------|
A|-3----3---3---3----3-----5-----7---7---|-7----7---7---7----7---7---7----7---7---7----7---7---|
E|-3----3---3---3----3-----5-----0---0---|-0----0---0---0----0---0---0----0---0---0----0---0---|

E|-----------------------------------------------------|-----------------------------------------------------|
B|-----------------------------------------------------|-----------------------------------------------------|
G|-----------------------------------------------------|-----------------------------------------------------|
D|-----------------------------------------------------|-----------------------------------------------------|
A|-7----7---7---7----7---7---7----7---7---7----7---7---|-3----3---3---3----3---3---3----3---3---3----3---3---|
E|-0----0---0---0----0---0---0----0---0---0----0---0---|-3----3---3---3----3---3---3----3---3---3----3---3---|

E|------------------------------------|-----------------------------------------------------|
B|------------------------------------|-----------------------------------------------------|
G|------------------------------------|-----------------------------------------------------|
D|-------------------------------9----|-9----9---9---9----9---9---9----9---9---9----9---9---|
A|-3----3---3---3----3-----5-----7----|-7----7---7---7----7---7---7----7---7---7----7---7---|
E|-3----3---3---3----3-----5----------|-----------------------------------------------------|

E|-----------------------------------------------------|-----------------------------------------------------|
B|-----------------------------------------------------|-----------------------------------------------------|
G|-----------------------------------------------------|-----------------------------------------------------|
D|-5----5---5---5----5---5---5----5---5---5----5---5---|-----------------------------------------------------|
A|-3----3---3---3----3---3---3----3---3---3----3---3---|-5----5---5---5----5---5---5----5---5---5----5---5---|
E|-----------------------------------------------------|-3----3---3---3----3---3---3----3---3---3----3---3---|

E|------------------------------------|-----------------------------------------------------|
B|------------------------------------|-----------------------------------------------------|
G|------------------------------------|-----------------------------------------------------|
D|-------------------------7-----9----|-9----9---9---9----9---9---9----9---9---9----9---9---|
A|-5----5---5---5----5-----5-----7----|-7----7---7---7----7---7---7----7---7---7----7---7---|
E|-3----3---3---3----3----------------|-----------------------------------------------------|

E|-----------------------------------------------------|-----------------------------------------------------|
B|-----------------------------------------------------|-----------------------------------------------------|
G|-----------------------------------------------------|-----------------------------------------------------|
D|-5----5---5---5----5---5---5----5---5---5----5---5---|-----------------------------------------------------|
A|-3----3---3---3----3---3---3----3---3---3----3---3---|-5----5---5---5----5---5---5----5---5---5----5---5---|
E|-----------------------------------------------------|-3----3---3---3----3---3---3----3---3---3----3---3---|

E|------------------------------------|--------------------------------------------------|
B|------------------------------------|--------------------------------------------------|
G|------------------------------------|---------------------------------------------5----|
D|-------------------------------5----|-5----5---5---5----5---5---5----5---5---5----5----|
A|-5----5---5---5----5-----5-----3----|-3----3---3---3----3---3---3----3---3---3---------|
E|-3----3---3---3----3-----3----------|--------------------------------------------------|

E|-----------------------------------------|-------------------------------------|-----------------------------|
B|-----------------------------------------|---------------------------10---10---|-10---------10----10---------|
G|-5----4----2-------------------2---------|------------7----12---9--------------|------12----------------9----|
D|-5--------------5----4----5--------------|-------------------------------------|-----------------------------|
A|------------------------------------3----|-3-----3-----------------------------|-----------------------------|
E|-----------------------------------------|-------------------------------------|-----------------------------|

E|-------------------------------------|-----------------------------|-------------------------------------|
B|---------------------------10---10---|-10---------10----10----10---|-10----10------------------10---10---|
G|-9-----9----7----12---9--------------|------12---------------------|------------7----12---9--------------|
D|-------------------------------------|-----------------------------|-------------------------------------|
A|-------------------------------------|-----------------------------|-------------------------------------|
E|-------------------------------------|-----------------------------|-------------------------------------|

E|-----------------------------|-----------------------------|------8-----10----12---------|
B|-10---------10----10---------|------------------10----12---|-12--------------------------|
G|------12----------------9----|-9----11----12---------------|-----------------------------|
D|-----------------------------|-----------------------------|-----------------------7-----|
A|-----------------------------|-----------------------------|-----------------------------|
E|-----------------------------|-----------------------------|-----------------------------|

E|-----------------------------|-------------------------------------|------------------------|
B|-----------------------------|-------------------------------------|------------------------|
G|------------------%----------|-------------%---------%-------------|------------------------|
D|-7----------------%---7------|-7-----------%---------%-------------|------------------------|
A|-------10---7----------------|-------10--------7---------5----3----|-3------3-----3----5----|
E|-----------------------------|--------------------------------3----|-3------3-----3----5----|

E|--------------------|-----------------------------|-------------------------------------|
B|--------------------|-----------------------------|-------------------------------------|
G|--------------------|------------------%----------|-------------%---------%-------------|
D|--------------7-----|-7----------------%---7------|-7-----------%---------%--------7----|
A|-5------5-----------|-------10---7----------------|-------10--------7---------5---------|
E|-5------5-----------|-----------------------------|-------------------------------------|

E|------------------------|--------------------|-----------------------------|-------------------------------------|
B|------------------------|--------------------|-----------------------------|-------------------------------------|
G|------------------------|--------------------|------------------%----------|-------------%---------%-------------|
D|-7------7-----7----7----|-7------7-----7-----|-7----------------%---7------|-7-----------%---------%-------------|
A|------------------------|--------------------|-------10---7----------------|-------10--------7---------5----3----|
E|------------------------|--------------------|-----------------------------|--------------------------------3----|

E|------------------------|--------------------|-----------------------------|-------------------------------------|
B|------------------------|--------------------|-----------------------------|-------------------------------------|
G|------------------------|--------------------|------------------%----------|-------------%---------%-------------|
D|------------------------|--------------7-----|-7----------------%---7------|-7-----------%---------%--------7----|
A|-3------3-----3----5----|-5------5-----------|-------10---7----------------|-------10--------7---------5---------|
E|-3------3-----3----5----|-5------5-----------|-----------------------------|-------------------------------------|

E|------------------------|------------------------|-----------------------------------------------|
B|------------------------|------------------------|-----------------------------------------------|
G|------------------------|------------------------|-%-----------------------------------%---------|
D|-7------7-----7----7----|-7------7-----7----9----|-%-----------------------------------%---------|
A|------------------------|-------------------7----|------7----10--9---10--9--------7---------7----|
E|------------------------|------------------------|---------------------------10------------------|

E|-----------------------------------------------|-----------------------------------------------|
B|-----------------------------------------------|-----------------------------------------------|
G|---------------------------%---------%---------|-%-----------------------------------%---------|
D|---------------------------%---------%---------|-%-----------------------------------%---------|
A|-10--9---10--9--------7---------7---------7----|------7----10--9---10--9--------7---------7----|
E|-----------------10----------------------------|---------------------------10------------------|

E|-----------------------------------------------|-----------------------------------------------|
B|-----------------------------------------------|-----------------------------------------------|
G|---------------------------%---------%---------|-%-----------------------------------%---------|
D|---------------------------%---------%---------|-%-----------------------------------%---------|
A|-10--9---10--9--------7---------7---------7----|------7----10--9---10--9--------7---------7----|
E|-----------------10----------------------------|---------------------------10------------------|

E|-----------------------------------------------|-----------------------------------------------|
B|-----------------------------------------------|-----------------------------------------------|
G|---------------------------%---------%---------|-%-----------------------------------%---------|
D|---------------------------%---------%---------|-%-----------------------------------%---------|
A|-10--9---10--9--------7---------7---------7----|------7----10--9---10--9--------7---------7----|
E|-----------------10----------------------------|---------------------------10------------------|

E|-----------------------------------------------|-----------------------------------------------|
B|-----------------------------------------------|-----------------------------------------------|
G|---------------------------%---------%---------|-%-----------------------------------%---------|
D|---------------------------%---------%---------|-%-----------------------------------%---------|
A|-10--9---10--9--------7---------7---------7----|------7----10--9---10--9--------7---------7----|
E|-----------------10----------------------------|---------------------------10------------------|

E|-----------------------------------------------|-----------------------------------------------|
B|-----------------------------------------------|-----------------------------------------------|
G|---------------------------%---------%---------|-%-----------------------------------%---------|
D|---------------------------%---------%---------|-%-----------------------------------%---------|
A|-10--9---10--9--------7---------7---------7----|------7----10--9---10--9--------7---------7----|
E|-----------------10----------------------------|---------------------------10------------------|

E|-------------------------------------12----|-12-----12---14---16----|-16---16--14-------------------16---|
B|-------------------------------------------|------------------------|--------------17-----17---17--------|
G|---------------------------%---------------|------------------------|------------------------------------|
D|---------------------------%---------------|------------------------|------------------------------------|
A|-10--9---10--9--------7---------7----------|------------------------|------------------------------------|
E|-----------------10------------------------|------------------------|------------------------------------|

E|-16---12----------12---------------|----------------------------|------------------------------------------------------------|
B|------------12----------12---------|----------------------------|------------------------------------------------------------|
G|------------------------------11---|-11-------------------------|------------------------------------------------------------|
D|-----------------------------------|-----9-----9----9------7----|-7----------------9---7-------------11---9----7---------12--|
A|-----------------------------------|----------------------------|-----11--9---7------------11---9-------------------11-------|
E|-----------------------------------|----------------------------|------------------------------------------------------------|

E|--------------------------------------|---------------------10----10--------|----------------------------|
B|--------------------------------------|------10--------10--------------10---|-9----10--------------------|
G|----------------11----11----11---9----|-9---------11------------------------|-----------6------6----9----|
D|-11---9-------------------------------|-------------------------------------|----------------------------|
A|-----------12-------------------------|-------------------------------------|----------------------------|
E|--------------------------------------|-------------------------------------|----------------------------|

E|----------------12---------------|----------------12---------------|----------------12----12---------|
B|------10--------------12---------|------10--------------12---------|------10-------------------------|
G|-9---------11---------------9----|-9---------11---------------9----|-9---------11---------------9----|
D|---------------------------------|---------------------------------|---------------------------------|
A|---------------------------------|---------------------------------|---------------------------------|
E|---------------------------------|---------------------------------|---------------------------------|

E|-----------------------16---|-16---------------------------------|------------------------------19---|
B|----------------------------|------17----------17----16----------|-----------------------------------|
G|-9----11-----11---11--------|------------16----------------16----|-------14--------------------------|
D|----------------------------|------------------------------------|-16----------14--------------------|
A|----------------------------|------------------------------------|-------------------16----16--------|
E|----------------------------|------------------------------------|-----------------------------------|

E|-19---19---17---16---17---16--17--16--14---16---|-14--16--14------14----------------------------|
B|------------------------------------------------|-------------17-------17---14------------------|
G|------------------------------------------------|--------------------------------16-------------|
D|------------------------------------------------|-------------------------------------16---16---|
A|------------------------------------------------|-----------------------------------------------|
E|------------------------------------------------|-----------------------------------------------|

E|-------------------------------------|-----------------------------|-------------------------------------|
B|---------------------------10---10---|-10---------10----10---------|---------------------------10---10---|
G|------------7----12---9--------------|------12----------------9----|-9-----9----7----12---9--------------|
D|-16----16----------------------------|-----------------------------|-------------------------------------|
A|-------------------------------------|-----------------------------|-------------------------------------|
E|-------------------------------------|-----------------------------|-------------------------------------|

E|-----------------------------|-------------------------------------|-----------------------------|
B|-10---------10----10----10---|-10----10------------------10---10---|-10---------10----10---------|
G|------12---------------------|------------7----12---9--------------|------12----------------9----|
D|-----------------------------|-------------------------------------|-----------------------------|
A|-----------------------------|-------------------------------------|-----------------------------|
E|-----------------------------|-------------------------------------|-----------------------------|

E|-----------------------------|------8-----10----12---------|-----------------------------|
B|------------------10----12---|-12--------------------------|-----------------------------|
G|-9----11----12---------------|-----------------------------|------------------%----------|
D|-----------------------------|-----------------------7-----|-7----------------%---7------|
A|-----------------------------|-----------------------------|-------10---7----------------|
E|-----------------------------|-----------------------------|-----------------------------|

E|-------------------------------------|------------------------|--------------------|
B|-------------------------------------|------------------------|--------------------|
G|-------------%---------%-------------|------------------------|--------------------|
D|-7-----------%---------%-------------|------------------------|--------------7-----|
A|-------10--------7---------5----3----|-3------3-----3----5----|-5------5-----------|
E|--------------------------------3----|-3------3-----3----5----|-5------5-----------|

E|-----------------------------|-------------------------------------|------------------------|
B|-----------------------------|-------------------------------------|------------------------|
G|------------------%----------|-------------%---------%-------------|------------------------|
D|-7----------------%---7------|-7-----------%---------%--------7----|-7------7-----7----7----|
A|-------10---7----------------|-------10--------7---------5---------|------------------------|
E|-----------------------------|-------------------------------------|------------------------|

E|--------------------|-----------------------------|-------------------------------------|
B|--------------------|-----------------------------|-------------------------------------|
G|--------------------|------------------%----------|-------------%---------%-------------|
D|-7------7-----7-----|-7----------------%---7------|-7-----------%---------%-------------|
A|--------------------|-------10---7----------------|-------10--------7---------5----3----|
E|--------------------|-----------------------------|--------------------------------3----|

E|------------------------|--------------------|-----------------------------|-------------------------------------|
B|------------------------|--------------------|-----------------------------|-------------------------------------|
G|------------------------|--------------------|------------------%----------|-------------%---------%-------------|
D|------------------------|--------------7-----|-7----------------%---7------|-7-----------%---------%--------7----|
A|-3------3-----3----5----|-5------5-----------|-------10---7----------------|-------10--------7---------5---------|
E|-3------3-----3----5----|-5------5-----------|-----------------------------|-------------------------------------|

E|------------------------|------------------------|------------------------|------------------15---------|
B|------------------------|------------------------|------------------------|------------------------17---|
G|------------------------|------------------------|------------------------|------14----16---------------|
D|-7------7-----7----7----|-7------7-----7----14---|-14-----14---16----17---|-17--------------------------|
A|------------------------|------------------------|------------------------|-----------------------------|
E|------------------------|------------------------|------------------------|-----------------------------|

E|------------------------|-----------------------------|---------|-----------------------------|
B|-17-----17--------------|------------------------14---|-14------|-14--------------------------|
G|-------------17----17---|-17---16----14---------------|---------|-------%-----%---------------|
D|------------------------|-------------------17--------|---------|-------%-----%----17----17---|
A|------------------------|-----------------------------|---------|-----------------------------|
E|------------------------|-----------------------------|---------|-----------------------------|

E|----------------------------|---------------------------------|-----------------------------------------------|
B|----------------------------|---------------------------------|-----------------------------------------------|
G|--------%-------------------|------------%----%-----%---------|-%-----------------------------------%---------|
D|-17-----%-------------------|------------%----%-----%---------|-%-----------------------------------%---------|
A|-------------17---19---17---|-17----17-------------------7----|------7----10--9---10--9--------7---------7----|
E|----------------------------|---------------------------------|---------------------------10------------------|

E|-----------------------------------------------|---------|
B|-----------------------------------------------|---------|
G|---------------------------%---------%---------|-%-------|
D|---------------------------%----9----%----9----|-%-------|
A|-10--9---10--9--------7---------7---------7----|---------|
E|-----------------10----------------------------|---------|
Iron Maiden - The Evil That Men Do (2)
Iron Maiden - The Evil That Men Do (2).gp3