Iron Maiden - The Fallen Angel

Iron Maiden



Title: The Fallen Angel
Album: Brave new world
Artist: IRON MAIDEN
Author: Adrian Smith & Steve Harris

Track 1: guitar 1
E|-------------------------------------------------------------|-------------------------------------------------------------|
B|-------------------------------------------------------------|-------------------------------------------------------------|
G|-------------------------------0-----------------------------|-5----5----5----4----4----4----2----5----4----2----0---------|
D|-0----2----2----2----2----2---------2----2----2----2----2----|--------------------------------------------------------0----|
A|-------------------------------------------------------------|-------------------------------------------------------------|
E|-------------------------------------------------------------|-------------------------------------------------------------|

E|-------------------------------------------------------------|-------------------------------------------------------------|
B|-------------------------------------------------------------|-------------------------------------------------------------|
G|-------------------------------------------------------------|-7----7----7----5----5----5----4----7----5----4--------------|
D|-0----2----2----2----2----2----5----2----2----2----2----2----|---------------------------------------------------7----5----|
A|-------------------------------------------------------------|-------------------------------------------------------------|
E|-------------------------------------------------------------|-------------------------------------------------------------|

E|-------------------------------------------------------------|-------------------------------------------------------------|
B|-------------------------------------------------------------|-------------------------------------------------------------|
G|-------------------------------------------------------------|-5----5----5----4----4----4----2----5----4----2----0---------|
D|-0----2----2----2----2----2----5----2----2----2----2----2----|--------------------------------------------------------4----|
A|-------------------------------------------------------------|-------------------------------------------------------------|
E|-------------------------------------------------------------|-------------------------------------------------------------|

E|-------------------------------------------------------------|-------------------------------5------|
B|-------------------------------------------------------------|---------------------4----7-----------|
G|-------------------------------------------------------------|----------------5---------------------|
D|-------------------------------------------------------------|------4----7--------------------------|
A|-2----2----2----2----2----2----2----2----2----2----2----2----|-6------------------------------------|
E|-------------------------------------------------------------|--------------------------------------|

E|---------------------------------------------------|--------------------|---------------------------------------------------|
B|---------------------------------------------------|--------------------|---------------------------------------------------|
G|---------------------------------------------------|-7------------7-----|---------------------------------------------------|
D|---------------------------------------------------|-7------5-----7-----|---------------------------------------------------|
A|---------------------------------------------------|-5------5-----5-----|---------------------------------------------------|
E|-0----0----0----2----3----0----0----0----2----3----|--------3-----------|-0----0----0----2----3----0----0----0----2----3----|

E|--------------------|---------------------------------------------------|--------------------|
B|--------------------|---------------------------------------------------|--------------------|
G|-5------------5-----|---------------------------------------------------|-7------------7-----|
D|-5------5-----5-----|---------------------------------------------------|-7------5-----7-----|
A|-3------5-----3-----|---------------------------------------------------|-5------5-----5-----|
E|--------3-----------|-0----0----0----2----3----0----0----0----2----3----|--------3-----------|

E|---------------------------------------------------|--------------------|---------------------------------------------------|
B|---------------------------------------------------|--------------------|---------------------------------------------------|
G|---------------------------------------------------|-5------------5-----|-----------%------------------------%--------------|
D|---------------------------------------------------|-5------5-----5-----|-----------%------------------------%--------------|
A|---------------------------------------------------|-3------5-----3-----|---------------------------------------------------|
E|-0----0----0----2----3----0----0----0----2----3----|--------3-----------|-0----0---------0----0----0----0---------0----0----|

E|----------------------------------------|---------------------------------------------------|
B|----------------------------------------|---------------------------------------------------|
G|-------------------5--------------------|-----------%------------------------%--------------|
D|-------------------5--------------------|-----------%------------------------%--------------|
A|-------------------3--------------------|---------------------------------------------------|
E|-0-----0-----0-----------0----2----3----|-0----0---------0----0----0----0---------0----0----|

E|----------------------------------------|---------------------------------------------------|
B|----------------------------------------|---------------------------------------------------|
G|-------------------7--------------------|-----------%------------------------%--------------|
D|-------------------7--------------------|-----------%------------------------%--------------|
A|-------------------5--------------------|---------------------------------------------------|
E|-0-----0-----0-----------0----2----3----|-0----0---------0----0----0----0---------0----0----|

E|----------------------------------------|---------------------------------------------------|
B|----------------------------------------|---------------------------------------------------|
G|-------------------5--------------------|-----------%------------------------%--------------|
D|-------------------5--------------------|-----------%------------------------%--------------|
A|-------------------3--------------------|---------------------------------------------------|
E|-0-----0-----0-----------0----2----3----|-0----0---------0----0----0----0---------0----0----|

E|----------------------------------------|-------------------------------------|-------------------------------|
B|----------------------------------------|-------------------------------------|-------------------------------|
G|-------------------7--------------------|-4----4----5----5----7----7----9-----|-4-----4-----4-----4-----4-----|
D|-------------------7--------------------|-4----4----5----5----7----7----9-----|-4-----4-----4-----4-----4-----|
A|-------------------5--------------------|-2----2----3----3----5----5----7-----|-2-----2-----2-----2-----2-----|
E|-0-----0-----0-----------0----2----3----|-------------------------------------|-------------------------------|

E|-------------------------------------|-------------------------------------|-------------------------------------|
B|-------------------------------------|-------------------------------------|-------------------------------------|
G|-4----4----5----5----7----7----9-----|-4-----4-----4-----4-----4-----4-----|-4----4----5----5----7----7----9-----|
D|-4----4----5----5----7----7----9-----|-4-----4-----4-----4-----4-----4-----|-4----4----5----5----7----7----9-----|
A|-2----2----3----3----5----5----7-----|-2-----2-----2-----2-----2-----2-----|-2----2----3----3----5----5----7-----|
E|-------------------------------------|-------------------------------------|-------------------------------------|

E|-------------------------------|-------------------------------------|-----------------------------------------|
B|-------------------------------|-------------------------------------|-----------------------------------------|
G|-4-----4-----4-----4-----4-----|-4----4----5----5----7----7----9-----|-4-----4-----4-----4-----4---------------|
D|-4-----4-----4-----4-----4-----|-4----4----5----5----7----7----9-----|-4-----4-----4-----4-----4----------0----|
A|-2-----2-----2-----2-----2-----|-2----2----3----3----5----5----7-----|-2-----2-----2-----2-----2-----3---------|
E|-------------------------------|-------------------------------------|-----------------------------------------|

E|--------------------------------------------|-----------------------------|--------------------------------------------|
B|--------------------------------------------|-----------------8-----10----|--------------------------------------------|
G|-9----9----%----X---X---5----5----%----7----|-7----7-----%----7-----9-----|-9----9----%----X---X---5----5----%----7----|
D|-9----9----%----X---X---5----5----%----7----|-7----7-----%----5-----7-----|-9----9----%----X---X---5----5----%----7----|
A|-7----7---------X---X---3----3---------5----|-5----5----------------------|-7----7---------X---X---3----3---------5----|
E|--------------------------------------------|-5----5----------------------|--------------------------------------------|

E|-----------------------------------------------|--------------------------------------------|
B|-------------------------------------4----7----|--------------------------------------------|
G|-7----7-----%-------------------5--------------|-9----9----%----X---X---5----5----%----7----|
D|-7----7-----%---------4----7-------------------|-9----9----%----X---X---5----5----%----7----|
A|-5----5----------6-----------------------------|-7----7---------X---X---3----3---------5----|
E|-5----5----------------------------------------|--------------------------------------------|

E|-----------------------------|-------------------------------------------------------------|
B|-----------------------------|-------------------------------------------------------------|
G|-7----7-----%----------------|-------------------------------------------------------------|
D|-7----7-----%----5-----7-----|-4----4----4----4----4----4----4----4----4----4----4----4----|
A|-5----5----------5-----7-----|-2----2----2----2----2----2----2----2----2----2----2----2----|
E|-5----5----------3-----5-----|-------------------------------------------------------------|

E|-------------------------------------------------------------|--------------------------------------------|
B|-------------------------------------------------------------|--------------------------------------------|
G|-------------------------------------------------------------|-9----9----%----X---X---5----5----%----7----|
D|-7----7----7----7----7----7----7----7----7----7----7----7----|-9----9----%----X---X---5----5----%----7----|
A|-5----5----5----5----5----5----5----5----5----5----5----5----|-7----7---------X---X---3----3---------5----|
E|-------------------------------------------------------------|--------------------------------------------|

E|-----------------------------|--------------------------------------------|-----------------------------------------------|
B|-----------------8-----10----|--------------------------------------------|-------------------------------------4----7----|
G|-7----7-----%----7-----9-----|-9----9----%----X---X---5----5----%----7----|-7----7-----%-------------------5--------------|
D|-7----7-----%----5-----7-----|-9----9----%----X---X---5----5----%----7----|-7----7-----%---------4----7-------------------|
A|-5----5----------------------|-7----7---------X---X---3----3---------5----|-5----5----------6-----------------------------|
E|-5----5----------------------|--------------------------------------------|-5----5----------------------------------------|

E|--------------------------------------------|-----------------------------|---------|
B|--------------------------------------------|-----------------------------|---------|
G|-9----9----%----X---X---5----5----%----7----|-7----7-----%----------------|-4-------|
D|-9----9----%----X---X---5----5----%----7----|-7----7-----%----5-----7-----|-4-------|
A|-7----7---------X---X---3----3---------5----|-5----5----------5-----7-----|-2-------|
E|--------------------------------------------|-5----5----------3-----5-----|---------|

E|---------|-------------------------------------------------------------|-------------------------------------------------------------|
B|---------|-------------------------------------------------------------|-------------------------------------------------------------|
G|-7-------|-------------------------------------------------------------|-5----5----5----4----4----4----2----5----4----2----0---------|
D|-7-------|-0----2----2----2----2----2----5----2----2----2----2----2----|--------------------------------------------------------0----|
A|-5-------|-------------------------------------------------------------|-------------------------------------------------------------|
E|---------|-------------------------------------------------------------|-------------------------------------------------------------|

E|-------------------------------------------------------------|-------------------------------------------------------------|
B|-------------------------------------------------------------|-------------------------------------------------------------|
G|-------------------------------------------------------------|-7----7----7----5----5----5----4----7----5----4--------------|
D|-0----2----2----2----2----2----5----2----2----2----2----2----|---------------------------------------------------7----5----|
A|-------------------------------------------------------------|-------------------------------------------------------------|
E|-------------------------------------------------------------|-------------------------------------------------------------|

E|-------------------------------------------------------------|-------------------------------------------------------------|
B|-------------------------------------------------------------|-------------------------------------------------------------|
G|-------------------------------------------------------------|-5----5----5----4----4----4----2----5----4----2----0---------|
D|-0----2----2----2----2----2----5----2----2----2----2----2----|--------------------------------------------------------0----|
A|-------------------------------------------------------------|-------------------------------------------------------------|
E|-------------------------------------------------------------|-------------------------------------------------------------|

E|-------------------------------------------------------------|-------------------------------------------------------------|
B|-------------------------------------------------------------|-------------------------------------------------------------|
G|-------------------------------------------------------------|-7----7----7----5----5----5----4----7----5----4--------------|
D|-0----2----2----2----2----2----5----2----2----2----2----2----|---------------------------------------------------7----5----|
A|-------------------------------------------------------------|-------------------------------------------------------------|
E|-------------------------------------------------------------|-------------------------------------------------------------|

E|-------------------------------------------------------------|-------------------------------------------|
B|-------------------------------------------------------------|-------------------------------------------|
G|-6----6----6----6----6----6----6----6----6----6----6----6----|-4----4----4----4----4----4----------------|
D|-6----6----6----6----6----6----6----6----6----6----6----6----|-4----4----4----4----4----4----------4-----|
A|-4----4----4----4----4----4----4----4----4----4----4----4----|-2----2----2----2----2----2----2-----4-----|
E|-------------------------------------------------------------|-------------------------------0-----2-----|

E|-------------------------------------------------------------|-------------------------------------------|
B|-------------------------------------------------------------|-------------------------------------------|
G|-6----6----6----6----6----6----6----6----6----6----6----6----|-4----4----4----4----4----4----------------|
D|-6----6----6----6----6----6----6----6----6----6----6----6----|-4----4----4----4----4----4----------4-----|
A|-4----4----4----4----4----4----4----4----4----4----4----4----|-2----2----2----2----2----2----2-----4-----|
E|-------------------------------------------------------------|-------------------------------0-----2-----|

E|-------------------------------------------------------------|-------------------------------------------|
B|-------------------------------------------------------------|-------------------------------------------|
G|-6----6----6----6----6----6----6----6----6----6----6----6----|-4----4----4----4----4----4----------------|
D|-6----6----6----6----6----6----6----6----6----6----6----6----|-4----4----4----4----4----4----------4-----|
A|-4----4----4----4----4----4----4----4----4----4----4----4----|-2----2----2----2----2----2----2-----4-----|
E|-------------------------------------------------------------|-------------------------------0-----2-----|

E|-------------------------------------------------------------|-------------------------------------------|
B|-------------------------------------------------------------|-------------------------------------------|
G|-6----6----6----6----6----6----6----6----6----6----6----6----|-4----4----4----4----4----4----------------|
D|-6----6----6----6----6----6----6----6----6----6----6----6----|-4----4----4----4----4----4----------4-----|
A|-4----4----4----4----4----4----4----4----4----4----4----4----|-2----2----2----2----2----2----2-----4-----|
E|-------------------------------------------------------------|-------------------------------0-----2-----|

E|------------------16--------------------------------|----------------------------------------------------------------------|
B|-19----19----19--------19---16-16-16-16-16-16-16-16-|----------------------------------------------------------16--17--19--|
G|----------------------------------------------------|-19-19-19-19-18-18-18-18-16-16-16-16-18---18---18----18---------------|
D|----------------------------------------------------|----------------------------------------------------------------------|
A|----------------------------------------------------|----------------------------------------------------------------------|
E|----------------------------------------------------|----------------------------------------------------------------------|

E|-16---18---19---19---19---19----19---17---16---|------16---17--------16--------------------------------------|
B|-----------------------------------------------|-19-------------19--------19---17---16---19---17---16--------|
G|-----------------------------------------------|--------------------------------------------------------18---|
D|-----------------------------------------------|-------------------------------------------------------------|
A|-----------------------------------------------|-------------------------------------------------------------|
E|-----------------------------------------------|-------------------------------------------------------------|

E|----------------------------------------------------------------------|-------------------------------------------|
B|-16----------------------------16-------------16--17--16------16--17--|---------------------16---17---19-----19---|
G|------16---18---15---16-------------16---18---------------18----------|-18---15---16---18-------------------------|
D|--------------------------18------------------------------------------|-------------------------------------------|
A|----------------------------------------------------------------------|-------------------------------------------|
E|----------------------------------------------------------------------|-------------------------------------------|

E|-16--19--16------16----------------------16--18--19--19---19---|-19----19---16---------------|
B|-------------19------19--16--18--16--19------------------------|-----------------19---19-----|
G|---------------------------------------------------------------|-----------------------------|
D|---------------------------------------------------------------|-----------------------------|
A|---------------------------------------------------------------|-----------------------------|
E|---------------------------------------------------------------|-----------------------------|

E|-----------------------------------------------|---------------------------------------------------------------------|
B|-----------------------------------------------|---------------------------------------------------------------------|
G|-4----4----4----4----4----4----5----7----7-----|-7---5---7---5---4---5---4---5---4-----------------------------------|
D|-4----4----4----4----4----4----5----7----------|-------------------------------------7---5---4-----------------------|
A|-2----2----2----2----2----2----3----5----------|-------------------------------------------------5---0---2-----2-----|
E|-----------------------------------------------|---------------------------------------------------------------------|

E|-------------------------------------------------------------|--------------------------------------------------------------------|
B|-------------------------------------------------------------|--------------------------------------------------------------------|
G|-------8----9---8-------8----9---8---------------------------|-------------------------------------------------------------8------|
D|--------------------10---------------10--7---9---7-------7---|-----7---9---10--9---7-----------------------7---9---7---9----------|
A|-2---------------------------------------------------10------|-10----------------------10--9---7---7---8--------------------------|
E|-------------------------------------------------------------|--------------------------------------------------------------------|

E|--------------------------------------|----------------------------------------------------------------------------|
B|-------15-----15---13---12---13---12--|-13--12------12------12--13--12---------------------------------------------|
G|-%------------------------------------|---------14------13--------------14--12--11------11--12--11-----------------|
D|-%------------------------------------|---------------------------------------------14--------------13---10--13----|
A|--------------------------------------|----------------------------------------------------------------------------|
E|--------------------------------------|----------------------------------------------------------------------------|

E|--------12----12--------|---------------------------------------------------------|
B|-------------------16---|-12---16---12--16--13--12--13--12------------------------|
G|------------------------|-----------------------------------11--14--12--11--------|
D|-13---------------------|---------------------------------------------------14----|
A|------------------------|---------------------------------------------------------|
E|------------------------|---------------------------------------------------------|

E|--------------------------------------------|-----------------------------|--------------------------------------------|
B|--------------------------------------------|-----------------8-----10----|--------------------------------------------|
G|-9----9----%----X---X---5----5----%----7----|-7----7-----%----7-----9-----|-9----9----%----X---X---5----5----%----7----|
D|-9----9----%----X---X---5----5----%----7----|-7----7-----%----5-----7-----|-9----9----%----X---X---5----5----%----7----|
A|-7----7---------X---X---3----3---------5----|-5----5----------------------|-7----7---------X---X---3----3---------5----|
E|--------------------------------------------|-5----5----------------------|--------------------------------------------|

E|-----------------------------------------------|--------------------------------------------|
B|-------------------------------------4----7----|--------------------------------------------|
G|-7----7-----%-------------------5--------------|-9----9----%----X---X---5----5----%----7----|
D|-7----7-----%---------4----7-------------------|-9----9----%----X---X---5----5----%----7----|
A|-5----5----------6-----------------------------|-7----7---------X---X---3----3---------5----|
E|-5----5----------------------------------------|--------------------------------------------|

E|-----------------------------|-------------------------------------------------------------|
B|-----------------------------|-------------------------------------------------------------|
G|-7----7-----%----------------|-------------------------------------------------------------|
D|-7----7-----%----5-----7-----|-4----4----4----4----4----4----4----4----4----4----4----4----|
A|-5----5----------5-----7-----|-2----2----2----2----2----2----2----2----2----2----2----2----|
E|-5----5----------3-----5-----|-------------------------------------------------------------|

E|-------------------------------------------------------------|--------------------------------------------|
B|-------------------------------------------------------------|--------------------------------------------|
G|-------------------------------------------------------------|-9----9----%----X---X---5----5----%----7----|
D|-7----7----7----7----7----7----7----7----7----7----7----7----|-9----9----%----X---X---5----5----%----7----|
A|-5----5----5----5----5----5----5----5----5----5----5----5----|-7----7---------X---X---3----3---------5----|
E|-------------------------------------------------------------|--------------------------------------------|

E|-----------------------------|--------------------------------------------|-----------------------------------------------|
B|-----------------8-----10----|--------------------------------------------|-------------------------------------4----7----|
G|-7----7-----%----7-----9-----|-9----9----%----X---X---5----5----%----7----|-7----7-----%-------------------5--------------|
D|-7----7-----%----5-----7-----|-9----9----%----X---X---5----5----%----7----|-7----7-----%---------4----7-------------------|
A|-5----5----------------------|-7----7---------X---X---3----3---------5----|-5----5----------6-----------------------------|
E|-5----5----------------------|--------------------------------------------|-5----5----------------------------------------|

E|--------------------------------------------|-----------------------------|---------|
B|--------------------------------------------|-----------------------------|---------|
G|-9----9----%----X---X---5----5----%----7----|-7----7-----%----------------|-4-------|
D|-9----9----%----X---X---5----5----%----7----|-7----7-----%----5-----7-----|-4-------|
A|-7----7---------X---X---3----3---------5----|-5----5----------5-----7-----|-2-------|
E|--------------------------------------------|-5----5----------3-----5-----|---------|

E|---------|-------------------------------------------------------------|-------------------------------------------------------------|
B|---------|-------------------------------------------------------------|-------------------------------------------------------------|
G|-7-------|-------------------------------------------------------------|-------------------------------------------------------------|
D|-7-------|-2----2----2----2----2----2----2----2----2----2----2----2----|-2----2----2----2----2----2----2----2----2----2----2----2----|
A|-5-------|-2----2----2----2----2----2----2----2----2----2----2----2----|-2----2----2----2----2----2----2----2----2----2----2----2----|
E|---------|-0----0----0----0----0----0----0----0----0----0----0----0----|-0----0----0----0----0----0----0----0----0----0----0----0----|

E|--------------------------------------------------------------|-------------------------------------------------------------|
B|--------------------------------------------------------------|-------------------------------------------------------------|
G|--------------------------------------------------------------|-------------------------------------------------------------|
D|-2----2----2----2----2----2----2----2----2----0---2---0---2---|-2----2----2----2----2----2----2----2----2----2----2----2----|
A|-2----2----2----2----2----2----2----2----2--------------------|-2----2----2----2----2----2----2----2----2----2----2----2----|
E|-0----0----0----0----0----0----0----0----0--------------------|-0----0----0----0----0----0----0----0----0----0----0----0----|

E|-------------------------------------------------------------|-------------------------------------------------------------|
B|-------------------------------------------------------------|-------------------------------------------------------------|
G|-------------------------------------------------------------|-------------------------------------------------------------|
D|-2----2----2----2----2----2----2----2----2----2----2----2----|-2----2----2----2----2----2----2----2----2----2----2----2----|
A|-2----2----2----2----2----2----2----2----2----2----2----2----|-2----2----2----2----2----2----2----2----2----2----2----2----|
E|-0----0----0----0----0----0----0----0----0----0----0----0----|-0----0----0----0----0----0----0----0----0----0----0----0----|

E|-------------------------------------------------------------|-------------------------------------------------------------|
B|-------------------------------------------------------------|-------------------------------------------------------------|
G|-------------------------------------------------------------|-------------------------------------------------------------|
D|-2----2----2----2----2----2----2----2----2----2----2----2----|-2----2----2----2----2----2----2----2----2----2----2----2----|
A|-2----2----2----2----2----2----2----2----2----2----2----2----|-2----2----2----2----2----2----2----2----2----2----2----2----|
E|-0----0----0----0----0----0----0----0----0----0----0----0----|-0----0----0----0----0----0----0----0----0----0----0----0----|

E|-------------------------|
B|-------------------------|
G|------------%-----%------|
D|-2-----2----%-----%------|
A|-2-----2-----------------|
E|-0-----0-----------------|
Iron Maiden - The Fallen Angel
Iron Maiden - The Fallen Angel.gp3