Iron Maiden - The Fugitive

Iron Maiden



Title: The Fugitive
Album: Fear Of The Dark
Artist: Iron Maiden
Author: 

Track 1: Guitar I
E|-----------------------------------------|-----------------------------------------|
B|-----------------------------------------|-----------------------------------------|
G|-----------------------------------------|-----------------------------------------|
D|-7----9---------9--------------9---------|------9--------------12---12---12--------|
A|-5----7---------7--------------7---------|------7--------------10---10---10--------|
E|-----------0---------0----0---------0----|-0---------0----0-------------------0----|

E|-----------------------------------------|-----------------------------------------|
B|-----------------------------------------|-----------------------------------------|
G|-----------------------------------------|-----------------------------------------|
D|-7----9---------9--------------9---------|------9--------------10---10---7----7----|
A|-5----7---------7--------------7---------|------7--------------8----8----5----5----|
E|-----------0---------0----0---------0----|-0---------0----0------------------------|

E|-----------------------------------------|-----------------------------------------|
B|-----------------------------------------|-----------------------------------------|
G|-----------------------------------------|-----------------------------------------|
D|-7----9---------9--------------9---------|------9--------------12---12---12--------|
A|-5----7---------7--------------7---------|------7--------------10---10---10--------|
E|-----------0---------0----0---------0----|-0---------0----0-------------------0----|

E|-----------------------------------------|-----------------------------------------|
B|-----------------------------------------|-----------------------------------------|
G|-----------------------------------------|-----------------------------------------|
D|-9----9----9----10---10---10---7----7----|-7----5----5----5----4----4----2----2----|
A|-7----7----7----8----8----8----5----5----|-5----3----3----3----2----2----0----0----|
E|-----------------------------------------|-----------------------------------------|

E|-----------------------------------------|-----------------------------------------|
B|-----------------------------------------|-----------------------------------------|
G|-----------------------------------------|-----------------------------------------|
D|-7----9---------9--------------9---------|------9--------------12---12---12--------|
A|-5----7---------7--------------7---------|------7--------------10---10---10--------|
E|-----------0---------0----0---------0----|-0---------0----0-------------------0----|

E|-----------------------------------------|-----------------------------------------|
B|-----------------------------------------|-----------------------------------------|
G|-----------------------------------------|-----------------------------------------|
D|-7----9---------9--------------9---------|------9--------------10---10---7----7----|
A|-5----7---------7--------------7---------|------7--------------8----8----5----5----|
E|-----------0---------0----0---------0----|-0---------0----0------------------------|

E|-----------------------------------------|-----------------------------------------|
B|-----------------------------------------|-----------------------------------------|
G|-----------------------------------------|-----------------------------------------|
D|-7----9---------9--------------9---------|------9--------------12---12---12--------|
A|-5----7---------7--------------7---------|------7--------------10---10---10--------|
E|-----------0---------0----0---------0----|-0---------0----0-------------------0----|

E|-----------------------------------------|-----------------------------------------|
B|-----------------------------------------|-----------------------------------------|
G|-----------------------------------------|-----------------------------------------|
D|-9----9----9----10---10---10---5----5----|-5----7----7----7----5----5----4----4----|
A|-7----7----7----8----8----8----3----3----|-3----5----5----5----3----3----2----2----|
E|-----------------------------------------|-----------------------------------------|

E|-0------0------0----|-0-------|-0------0------0-----|-0----0------0-----0-----|-0------0------0----|
B|-0------3------3----|-3-------|-0------3------5-----|-5----3------0-----3-----|-0------3------3----|
G|-4------5------5----|-5-------|-4------5------7-----|-7----5------4-----5-----|-4------5------5----|
D|-4------5------5----|-5-------|-4------5------7-----|-7----5------4-----5-----|-4------5------5----|
A|--------------------|---------|---------------------|-------------------------|--------------------|
E|--------------------|---------|---------------------|-------------------------|--------------------|

E|-0-------|-0------0------0-----|-0----0------0-----0-----|-----------------------------------------|
B|-3-------|-0------3------5-----|-5----3------0-----3-----|-----------------------------------------|
G|-5-------|-4------5------7-----|-7----5------4-----5-----|-----------------------------------------|
D|-5-------|-4------5------7-----|-7----5------4-----5-----|-7----9---------9--------------9---------|
A|---------|---------------------|-------------------------|-5----7---------7--------------7---------|
E|---------|---------------------|-------------------------|-----------0---------0----0---------0----|

E|-----------------------------------------|-----------------------------------------|
B|-----------------------------------------|-----------------------------------------|
G|-----------------------------------------|-----------------------------------------|
D|------9--------------12---12---12--------|-7----9---------9--------------9---------|
A|------7--------------10---10---10--------|-5----7---------7--------------7---------|
E|-0---------0----0-------------------0----|-----------0---------0----0---------0----|

E|-----------------------------------------|-----------------------------------------|
B|-----------------------------------------|-----------------------------------------|
G|-----------------------------------------|-----------------------------------------|
D|------9--------------10---10---7----7----|-7----9---------9--------------9---------|
A|------7--------------8----8----5----5----|-5----7---------7--------------7---------|
E|-0---------0----0------------------------|-----------0---------0----0---------0----|

E|-----------------------------------------|-----------------------------------------|
B|-----------------------------------------|-----------------------------------------|
G|-----------------------------------------|-----------------------------------------|
D|------9--------------12---12---12--------|-9----9----9----10---10---10---5----5----|
A|------7--------------10---10---10--------|-7----7----7----8----8----8----3----3----|
E|-0---------0----0-------------------0----|-----------------------------------------|

E|-----------------------------------------|---------|---------|---------|---------|
B|-----------------------------------------|---------|---------|---------|---------|
G|------------------------------------%----|-%-------|-%-------|-%-------|-%-------|
D|-5----7----7----7----5----5----4----%----|-%-------|-%-------|-%-------|-%-------|
A|-3----5----5----5----3----3----2---------|---------|---------|---------|---------|
E|-----------------------------------------|---------|---------|---------|---------|

E|---------|---------|---------|---------|---------|---------|---------|---------|---------|
B|---------|---------|---------|---------|---------|---------|---------|---------|---------|
G|-%-------|-%-------|-%-------|-%-------|-%-------|-%-------|-%-------|-%-------|-%-------|
D|-%-------|-%-------|-%-------|-%-------|-%-------|-%-------|-%-------|-%-------|-%-------|
A|---------|---------|---------|---------|---------|---------|---------|---------|---------|
E|---------|---------|---------|---------|---------|---------|---------|---------|---------|

E|---------|---------|---------|---------|---------|---------|---------|---------|---------|
B|---------|---------|---------|---------|---------|---------|---------|---------|---------|
G|-%-------|-%-------|-%-------|-%-------|-%-------|-%-------|-%-------|-%-------|-%-------|
D|-%-------|-%-------|-%-------|-%-------|-%-------|-%-------|-%-------|-%-------|-%-------|
A|---------|---------|---------|---------|---------|---------|---------|---------|---------|
E|---------|---------|---------|---------|---------|---------|---------|---------|---------|

E|-----------------------------------------|-----------------------------------------|
B|-----------------------------------------|-----------------------------------------|
G|-----------------------------------------|-----------------------------------------|
D|-7--------------7--------------7---------|------7--------------7---------7----7----|
A|-5----5----5----5----5----5----5----5----|-5----5----5----5----5----5----5----5----|
E|-----------------------------------------|-----------------------------------------|

E|-----------------------------------------|-----------------------------------------|
B|-----------------------------------------|-----------------------------------------|
G|-----------------------------------------|-----------------------------------------|
D|-7--------------7--------------7---------|-5--------------5--------------5---------|
A|-5----5----5----5----5----5----5----5----|-3----3----3----3----3----3----3----3----|
E|-----------------------------------------|-----------------------------------------|

E|-----------------------------------------|-----------------------------------------|
B|-----------------------------------------|-----------------------------------------|
G|-----------------------------------------|-----------------------------------------|
D|-2--------------2--------------2---------|-3--------------3--------------3---------|
A|-0----0----0----0----0----0----0----0----|-1----1----1----1----1----1----1----1----|
E|-----------------------------------------|-----------------------------------------|

E|-----------------------------------------|-----------------------------------------|
B|-----------------------------------------|-----------------------------------------|
G|-----------------------------------------|-----------------------------------------|
D|-3--------------3--------------3---------|-5--------------5--------------5---------|
A|-1----1----1----1----1----1----1----1----|-3----3----3----3----3----3----3----3----|
E|-----------------------------------------|-----------------------------------------|

E|-----------------------------------------|-----------------------------------------|
B|-----------------------------------------|-----------------------------------------|
G|-----------------------------------------|-----------------------------------------|
D|-7--------------7--------------7---------|-7--------------7--------------7---------|
A|-5----5----5----5----5----5----5----5----|-5----5----5----5----5----5----5----5----|
E|-----------------------------------------|-----------------------------------------|

E|-----------------------------------------|-----------------------------------------|
B|-----------------------------------------|-----------------------------------------|
G|-----------------------------------------|-----------------------------------------|
D|-7--------------7--------------7---------|-5--------------5--------------5---------|
A|-5----5----5----5----5----5----5----5----|-3----3----3----3----3----3----3----3----|
E|-----------------------------------------|-----------------------------------------|

E|-----------------------------------------|-----------------------------------------|
B|-----------------------------------------|-----------------------------------------|
G|-----------------------------------------|-----------------------------------------|
D|-2--------------2--------------2---------|-3--------------3--------------3---------|
A|-0----0----0----0----0----0----0----0----|-1----1----1----1----1----1----1----1----|
E|-----------------------------------------|-----------------------------------------|

E|-----------------------------------------|-----------------------------------------|
B|-----------------------------------------|-----------------------------------------|
G|-----------------------------------------|-----------------------------------------|
D|-3--------------3--------------3---------|-5--------------5--------------5---------|
A|-1----1----1----1----1----1----1----1----|-3----3----3----3----3----3----3----3----|
E|-----------------------------------------|-----------------------------------------|

E|-----------------------------------------|-------------------------------------|--------------------|
B|-----------------------------------------|-------------------------------------|--------------------|
G|-----------------------------------------|-------------------------------------|-------%------------|
D|-7--------------7--------------7---------|------7--------------5---------------|-7-----%-----5------|
A|-5----5----5----5----5----5----5----5----|-5----5----5----5----3----5-----2----|-5-----------3------|
E|-----------------------------------------|--------------------------3-----0----|--------------------|

E|---------------------------------|---------------------------------|--------------------|
B|---------------------------------|---------------------------------|--------------------|
G|------5----%---------5-----------|-----------------%---------3-----|-3------------------|
D|------5----%---------5------2----|-2----------2----%---------3-----|-3------------------|
A|-3--------------3-----------0----|-0-----0----0---------0----1-----|-1------3----5------|
E|---------------------------------|---------------------------------|--------1----3------|

E|--------------------|---------------------------------|---------------------------------|
B|--------------------|---------------------------------|---------------------------------|
G|-------%------------|------5----%---------5-----------|-----------------%---------3-----|
D|-7-----%-----5------|------5----%---------5------2----|-2----------2----%---------3-----|
A|-5-----------3------|-3--------------3-----------0----|-0-----0----0---------0----1-----|
E|--------------------|---------------------------------|---------------------------------|

E|--------------------|--------------------|---------------------------------|---------------------------------|
B|--------------------|--------------------|---------------------------------|---------------------------------|
G|-3------------------|-------%------------|------5----%---------5-----------|-----------------%---------3-----|
D|-3------------------|-7-----%-----5------|------5----%---------5------2----|-2----------2----%---------3-----|
A|-1------3----5------|-5-----------3------|-3--------------3-----------0----|-0-----0----0---------0----1-----|
E|--------1----3------|--------------------|---------------------------------|---------------------------------|

E|--------------------|--------------------|---------------------------------|---------------------------------|
B|--------------------|--------------------|---------------------------------|---------------------------------|
G|-3------------------|-------%------------|------5----%---------5-----------|-----------------%---------3-----|
D|-3------------------|-7-----%-----5------|------5----%---------5------2----|-2----------2----%---------3-----|
A|-1------3----5------|-5-----------3------|-3--------------3-----------0----|-0-----0----0---------0----1-----|
E|--------1----3------|--------------------|---------------------------------|---------------------------------|

E|---------|-----------------------------------------|-----------------------------------------|
B|---------|-----------------------------------------|-----------------------------------------|
G|-3-------|-----------------------------------------|-----------------------------------------|
D|-3-------|-7--------------7--------------7---------|-5--------------5--------------5---------|
A|-1-------|-5----5----5----5----5----5----5----5----|-3----3----3----3----3----3----3----3----|
E|---------|-----------------------------------------|-----------------------------------------|

E|-----------------------------------------|-----------------------------------------|
B|-----------------------------------------|-----------------------------------------|
G|-----------------------------------------|-----------------------------------------|
D|-2--------------2--------------2---------|-3--------------3--------------3---------|
A|-0----0----0----0----0----0----0----0----|-1----1----1----1----1----1----1----1----|
E|-----------------------------------------|-----------------------------------------|

E|-----------------------------------------|-----------------------------------------|
B|-----------------------------------------|-----------------------------------------|
G|-----------------------------------------|-----------------------------------------|
D|-3--------------3--------------3---------|-5--------------5--------------5---------|
A|-1----1----1----1----1----1----1----1----|-3----3----3----3----3----3----3----3----|
E|-----------------------------------------|-----------------------------------------|

E|-----------------------------------------|-----------------------------------------|
B|-----------------------------------------|-----------------------------------------|
G|-----------------------------------------|-----------------------------------------|
D|-7--------------7--------------7---------|-7--------------7--------------7---------|
A|-5----5----5----5----5----5----5----5----|-5----5----5----5----5----5----5----5----|
E|-----------------------------------------|-----------------------------------------|

E|-----------------------------------------|-----------------------------------------|
B|-----------------------------------------|-----------------------------------------|
G|-----------------------------------------|-----------------------------------------|
D|-7--------------7--------------7---------|-5--------------5--------------5---------|
A|-5----5----5----5----5----5----5----5----|-3----3----3----3----3----3----3----3----|
E|-----------------------------------------|-----------------------------------------|

E|-----------------------------------------|-----------------------------------------|
B|-----------------------------------------|-----------------------------------------|
G|-----------------------------------------|-----------------------------------------|
D|-2--------------2--------------2---------|-3--------------3--------------3---------|
A|-0----0----0----0----0----0----0----0----|-1----1----1----1----1----1----1----1----|
E|-----------------------------------------|-----------------------------------------|

E|-----------------------------------------|-----------------------------------------|
B|-----------------------------------------|-----------------------------------------|
G|-----------------------------------------|-----------------------------------------|
D|-3--------------3--------------3---------|-5--------------5--------------5---------|
A|-1----1----1----1----1----1----1----1----|-3----3----3----3----3----3----3----3----|
E|-----------------------------------------|-----------------------------------------|

E|-----------------------------------------|-------------------------------------|--------------------|
B|-----------------------------------------|-------------------------------------|--------------------|
G|-----------------------------------------|-------------------------------------|-------%------------|
D|-7--------------7--------------7---------|------7--------------5---------------|-7-----%-----5------|
A|-5----5----5----5----5----5----5----5----|-5----5----5----5----3----5-----2----|-5-----------3------|
E|-----------------------------------------|--------------------------3-----0----|--------------------|

E|---------------------------------|---------------------------------|--------------------|
B|---------------------------------|---------------------------------|--------------------|
G|------5----%---------5-----------|-----------------%---------3-----|-3------------------|
D|------5----%---------5------2----|-2----------2----%---------3-----|-3------------------|
A|-3--------------3-----------0----|-0-----0----0---------0----1-----|-1------3----5------|
E|---------------------------------|---------------------------------|--------1----3------|

E|--------------------|---------------------------------|---------------------------------|
B|--------------------|---------------------------------|---------------------------------|
G|-------%------------|------5----%---------5-----------|-----------------%---------3-----|
D|-7-----%-----5------|------5----%---------5------2----|-2----------2----%---------3-----|
A|-5-----------3------|-3--------------3-----------0----|-0-----0----0---------0----1-----|
E|--------------------|---------------------------------|---------------------------------|

E|--------------------|--------------------|---------------------------------|---------------------------------|
B|--------------------|--------------------|---------------------------------|---------------------------------|
G|-3------------------|-------%------------|------5----%---------5-----------|-----------------%---------3-----|
D|-3------------------|-7-----%-----5------|------5----%---------5------2----|-2----------2----%---------3-----|
A|-1------3----5------|-5-----------3------|-3--------------3-----------0----|-0-----0----0---------0----1-----|
E|--------1----3------|--------------------|---------------------------------|---------------------------------|

E|--------------------|--------------------|---------------------------------|---------------------------------|
B|--------------------|--------------------|---------------------------------|---------------------------------|
G|-3------------------|-------%------------|------5----%---------5-----------|-----------------%---------3-----|
D|-3------------------|-7-----%-----5------|------5----%---------5------2----|-2----------2----%---------3-----|
A|-1------3----5------|-5-----------3------|-3--------------3-----------0----|-0-----0----0---------0----1-----|
E|--------1----3------|--------------------|---------------------------------|---------------------------------|

E|---------|-----------------------------------------|-----------------------------------------|
B|---------|-----------------------------------------|-----------------------------------------|
G|-3-------|-----------------------------------------|-----------------------------------------|
D|-3-------|-7----9----9----9----9----9----9----9----|-10---10---10---7----7----7----7----7----|
A|-1-------|-7----7----7----7----7----7----7----7----|-7----7----7----7----7----7----7----7----|
E|---------|-----------------------------------------|-----------------------------------------|

E|-----------------------------------------|-----------------------------------------|
B|-----------------------------------------|-----------------------------------------|
G|-----------------------------------------|-----------------------------------------|
D|-7----9----9----9----9----9----9----9----|-10---10---10---7----7----7----7----7----|
A|-7----7----7----7----7----7----7----7----|-7----7----7----7----7----7----7----7----|
E|-----------------------------------------|-----------------------------------------|

E|-----------------------------------------|-----------------------------------------|
B|-----------------------------------------|-----------------------------------------|
G|-----------------------------------------|-----------------------------------------|
D|-5----7----7----7----7----7----7----7----|-8----8----8----5----5----5----5----5----|
A|-5----5----5----5----5----5----5----5----|-5----5----5----5----5----5----5----5----|
E|-----------------------------------------|-----------------------------------------|

E|-----------------------------------------|-----------------------------------------|
B|-----------------------------------------|-----------------------------------------|
G|-----------------------------------------|-----------------------------------------|
D|-4----6----6----6----6----6----6----6----|-6----6----6----4----4----4----4----4----|
A|-4----4----4----4----4----4----4----4----|-4----4----4----4----4----4----4----4----|
E|-----------------------------------------|-----------------------------------------|

E|-----------------------------------------|-----------------------------------------|
B|-----------------------------------------|-----------------------------------------|
G|-----------------------------------------|-----------------------------------------|
D|-7----9----9----9----9----9----9----9----|-10---10---10---7----7----7----7----7----|
A|-7----7----7----7----7----7----7----7----|-7----7----7----7----7----7----7----7----|
E|-----------------------------------------|-----------------------------------------|

E|-----------------------------------------|-----------------------------------------|
B|-----------------------------------------|-----------------------------------------|
G|-----------------------------------------|-----------------------------------------|
D|-7----9----9----9----9----9----9----9----|-10---10---10---7----7----7----7----7----|
A|-7----7----7----7----7----7----7----7----|-7----7----7----7----7----7----7----7----|
E|-----------------------------------------|-----------------------------------------|

E|-----------------------------------------|-----------------------------------------|
B|-----------------------------------------|-----------------------------------------|
G|-----------------------------------------|-----------------------------------------|
D|-5----7----7----7----7----7----7----7----|-8----8----8----5----5----5----5----5----|
A|-5----5----5----5----5----5----5----5----|-5----5----5----5----5----5----5----5----|
E|-----------------------------------------|-----------------------------------------|

E|-----------------------------------------|-----------------------------------------|
B|-----------------------------------------|-----------------------------------------|
G|-6----8----8----8----8----8----8----8----|-9----9----9----6----6----6----6----%----|
D|-6----6----6----6----6----6----6----6----|-6----6----6----6----6----6----6----%----|
A|-----------------------------------------|-----------------------------------------|
E|-----------------------------------------|-----------------------------------------|

E|-----------------------------------------|-----------------------------------------|
B|-----------------------------------------|-----------------------------------------|
G|-----------------------------------------|-----------------------------------------|
D|-7----9---------9--------------9---------|------9--------------12---12---12--------|
A|-5----7---------7--------------7---------|------7--------------10---10---10--------|
E|-----------0---------0----0---------0----|-0---------0----0-------------------0----|

E|-----------------------------------------|-----------------------------------------|
B|-----------------------------------------|-----------------------------------------|
G|-----------------------------------------|-----------------------------------------|
D|-7----9---------9--------------9---------|------9--------------10---10---7----7----|
A|-5----7---------7--------------7---------|------7--------------8----8----5----5----|
E|-----------0---------0----0---------0----|-0---------0----0------------------------|

E|-----------------------------------------|-----------------------------------------|
B|-----------------------------------------|-----------------------------------------|
G|-----------------------------------------|-----------------------------------------|
D|-7----9---------9--------------9---------|------9--------------12---12---12--------|
A|-5----7---------7--------------7---------|------7--------------10---10---10--------|
E|-----------0---------0----0---------0----|-0---------0----0-------------------0----|

E|-----------------------------------------|-----------------------------------------|
B|-----------------------------------------|-----------------------------------------|
G|-----------------------------------------|-----------------------------------------|
D|-9----9----9----10---10---10---7----7----|-7----5----5----5----4----4----2----2----|
A|-7----7----7----8----8----8----5----5----|-5----3----3----3----2----2----0----0----|
E|-----------------------------------------|-----------------------------------------|

E|-----------------------------------------|-----------------------------------------|
B|-----------------------------------------|-----------------------------------------|
G|-----------------------------------------|-----------------------------------------|
D|-7----9---------9--------------9---------|------9--------------12---12---12--------|
A|-5----7---------7--------------7---------|------7--------------10---10---10--------|
E|-----------0---------0----0---------0----|-0---------0----0-------------------0----|

E|-----------------------------------------|-----------------------------------------|
B|-----------------------------------------|-----------------------------------------|
G|-----------------------------------------|-----------------------------------------|
D|-7----9---------9--------------9---------|------9--------------10---10---7----7----|
A|-5----7---------7--------------7---------|------7--------------8----8----5----5----|
E|-----------0---------0----0---------0----|-0---------0----0------------------------|

E|-----------------------------------------|-----------------------------------------|
B|-----------------------------------------|-----------------------------------------|
G|-----------------------------------------|-----------------------------------------|
D|-7----9---------9--------------9---------|------9--------------12---12---12--------|
A|-5----7---------7--------------7---------|------7--------------10---10---10--------|
E|-----------0---------0----0---------0----|-0---------0----0-------------------0----|

E|-----------------------------------------|-----------------------------------------|
B|-----------------------------------------|-----------------------------------------|
G|-----------------------------------------|-----------------------------------------|
D|-9----9----9----10---10---10---5----5----|-5----7----7----7----5----5----4----4----|
A|-7----7----7----8----8----8----3----3----|-3----5----5----5----3----3----2----2----|
E|-----------------------------------------|-----------------------------------------|

E|---------------------------|---------|---------------------|-------------------------|
B|-12----10-10---10-----10---|-10------|-12-----13-----13----|-13---13-----12----13----|
G|---------------------------|---------|---------------------|-------------------------|
D|---------------------------|---------|---------------------|-------------------------|
A|---------------------------|---------|---------------------|-------------------------|
E|---------------------------|---------|---------------------|-------------------------|

E|---------------------------|---------|---------------------|--------------------17---|
B|-12----10-10---10-----10---|-10------|-12-----13-----13----|-13---13-----12----------|
G|---------------------------|---------|---------------------|-------------------------|
D|---------------------------|---------|---------------------|-------------------------|
A|---------------------------|---------|---------------------|-------------------------|
E|---------------------------|---------|---------------------|-------------------------|

E|-17------|-17------17--------|---------------|--------------17---|-17---17------17---|
B|---------|-------------------|---------------|-------------------|-------------------|
G|---------|--------------2----|-2-------2-----|-2-------2---------|-------------------|
D|---------|-------------------|---------------|-------------------|-------------------|
A|---------|-------------------|---------------|-------------------|-------------------|
E|---------|-------------------|---------------|-------------------|-------------------|

E|-17-----17---19-------------|---------------|-------------------|------12---14--------12---14---12--------12---|
B|-----------------------15---|-15-----15-----|-10------10---15---|-15-------------15------------------15--------|
G|------------------%----14---|-14-----14-----|-9-------9---------|----------------------------------------------|
D|------------------%---------|---------------|-------------------|----------------------------------------------|
A|----------------------------|---------------|-------------------|----------------------------------------------|
E|----------------------------|---------------|-------------------|----------------------------------------------|

E|-14---15---17---15---14---15--14--15--14-------|-14--------------------------------------------|
B|------------------------------------------17---|------17---15---13---15--13--15--13--12--------|
G|-----------------------------------------------|------------------------------------------14---|
D|-----------------------------------------------|-----------------------------------------------|
A|-----------------------------------------------|-----------------------------------------------|
E|-----------------------------------------------|-----------------------------------------------|

E|-----------12---14--------12--------14---|-16--14--16--14--12---14--------16---17---19---|
B|-12---15-------------15--------15--------|---------------------------17------------------|
G|-----------------------------------------|-----------------------------------------------|
D|-----------------------------------------|-----------------------------------------------|
A|-----------------------------------------|-----------------------------------------------|
E|-----------------------------------------|-----------------------------------------------|

E|-17----16--17--16--17--16--14---16---14--------|-----------16---17--16--17--16-------16---17---|
B|------------------------------------------17---|-17---19------------------------19-------------|
G|-----------------------------------------------|-----------------------------------------------|
D|-----------------------------------------------|-----------------------------------------------|
A|-----------------------------------------------|-----------------------------------------------|
E|-----------------------------------------------|-----------------------------------------------|

E|-20-----20-----20---|-----------------------------------------|-----------------------------------------|
B|--------------------|-----------------------------------------|-----------------------------------------|
G|--------------------|-----------------------------------------|-----------------------------------------|
D|--------------------|-7--------------7--------------7---------|-5--------------5--------------5---------|
A|--------------------|-5----5----5----5----5----5----5----5----|-3----3----3----3----3----3----3----3----|
E|--------------------|-----------------------------------------|-----------------------------------------|

E|-----------------------------------------|-----------------------------------------|
B|-----------------------------------------|-----------------------------------------|
G|-----------------------------------------|-----------------------------------------|
D|-2--------------2--------------2---------|-3--------------3--------------3---------|
A|-0----0----0----0----0----0----0----0----|-1----1----1----1----1----1----1----1----|
E|-----------------------------------------|-----------------------------------------|

E|-----------------------------------------|-----------------------------------------|
B|-----------------------------------------|-----------------------------------------|
G|-----------------------------------------|-----------------------------------------|
D|-3--------------3--------------3---------|-5--------------5--------------5---------|
A|-1----1----1----1----1----1----1----1----|-3----3----3----3----3----3----3----3----|
E|-----------------------------------------|-----------------------------------------|

E|-----------------------------------------|-----------------------------------------|
B|-----------------------------------------|-----------------------------------------|
G|-----------------------------------------|-----------------------------------------|
D|-7--------------7--------------7---------|-7--------------7--------------7---------|
A|-5----5----5----5----5----5----5----5----|-5----5----5----5----5----5----5----5----|
E|-----------------------------------------|-----------------------------------------|

E|-----------------------------------------|-----------------------------------------|
B|-----------------------------------------|-----------------------------------------|
G|-----------------------------------------|-----------------------------------------|
D|-7--------------7--------------7---------|-5--------------5--------------5---------|
A|-5----5----5----5----5----5----5----5----|-3----3----3----3----3----3----3----3----|
E|-----------------------------------------|-----------------------------------------|

E|-----------------------------------------|-----------------------------------------|
B|-----------------------------------------|-----------------------------------------|
G|-----------------------------------------|-----------------------------------------|
D|-2--------------2--------------2---------|-3--------------3--------------3---------|
A|-0----0----0----0----0----0----0----0----|-1----1----1----1----1----1----1----1----|
E|-----------------------------------------|-----------------------------------------|

E|-----------------------------------------|-----------------------------------------|
B|-----------------------------------------|-----------------------------------------|
G|-----------------------------------------|-----------------------------------------|
D|-3--------------3--------------3---------|-5--------------5--------------5---------|
A|-1----1----1----1----1----1----1----1----|-3----3----3----3----3----3----3----3----|
E|-----------------------------------------|-----------------------------------------|

E|-----------------------------------------|-------------------------------------|--------------------|
B|-----------------------------------------|-------------------------------------|--------------------|
G|-----------------------------------------|-------------------------------------|-------%------------|
D|-7--------------7--------------7---------|------7--------------5---------------|-7-----%-----5------|
A|-5----5----5----5----5----5----5----5----|-5----5----5----5----3----5-----2----|-5-----------3------|
E|-----------------------------------------|--------------------------3-----0----|--------------------|

E|---------------------------------|---------------------------------|--------------------|
B|---------------------------------|---------------------------------|--------------------|
G|------5----%---------5-----------|-----------------%---------3-----|-3------------------|
D|------5----%---------5------2----|-2----------2----%---------3-----|-3------------------|
A|-3--------------3-----------0----|-0-----0----0---------0----1-----|-1------3----5------|
E|---------------------------------|---------------------------------|--------1----3------|

E|--------------------|---------------------------------|---------------------------------|
B|--------------------|---------------------------------|---------------------------------|
G|-------%------------|------5----%---------5-----------|-----------------%---------3-----|
D|-7-----%-----5------|------5----%---------5------2----|-2----------2----%---------3-----|
A|-5-----------3------|-3--------------3-----------0----|-0-----0----0---------0----1-----|
E|--------------------|---------------------------------|---------------------------------|

E|--------------------|--------------------|---------------------------------|---------------------------------|
B|--------------------|--------------------|---------------------------------|---------------------------------|
G|-3------------------|-------%------------|------5----%---------5-----------|-----------------%---------3-----|
D|-3------------------|-7-----%-----5------|------5----%---------5------2----|-2----------2----%---------3-----|
A|-1------3----5------|-5-----------3------|-3--------------3-----------0----|-0-----0----0---------0----1-----|
E|--------1----3------|--------------------|---------------------------------|---------------------------------|

E|--------------------|--------------------|---------------------------------|---------------------------------|
B|--------------------|--------------------|---------------------------------|---------------------------------|
G|-3------------------|-------%------------|------5----%---------5-----------|-----------------%---------3-----|
D|-3------------------|-7-----%-----5------|------5----%---------5------2----|-2----------2----%---------3-----|
A|-1------3----5------|-5-----------3------|-3--------------3-----------0----|-0-----0----0---------0----1-----|
E|--------1----3------|--------------------|---------------------------------|---------------------------------|

E|---------|-----------------------------------------|-----------------------------------------|
B|---------|-----------------------------------------|-----------------------------------------|
G|-3-------|-----------------------------------------|-----------------------------------------|
D|-3-------|-7----9---------9--------------9---------|------9--------------12---12---12--------|
A|-1-------|-5----7---------7--------------7---------|------7--------------10---10---10--------|
E|---------|-----------0---------0----0---------0----|-0---------0----0-------------------0----|

E|-----------------------------------------|-----------------------------------------|
B|-----------------------------------------|-----------------------------------------|
G|-----------------------------------------|-----------------------------------------|
D|-7----9---------9--------------9---------|------9--------------10---10---7----7----|
A|-5----7---------7--------------7---------|------7--------------8----8----5----5----|
E|-----------0---------0----0---------0----|-0---------0----0------------------------|

E|-----------------------------------------|-----------------------------------------|
B|-----------------------------------------|-----------------------------------------|
G|-----------------------------------------|-----------------------------------------|
D|-7----9---------9--------------9---------|------9--------------12---12---12--------|
A|-5----7---------7--------------7---------|------7--------------10---10---10--------|
E|-----------0---------0----0---------0----|-0---------0----0-------------------0----|

E|-----------------------------------------|-----------------------------------------|
B|-----------------------------------------|-----------------------------------------|
G|-----------------------------------------|-----------------------------------------|
D|-9----9----9----10---10---10---7----7----|-7----5----5----5----4----4----2----2----|
A|-7----7----7----8----8----8----5----5----|-5----3----3----3----2----2----0----0----|
E|-----------------------------------------|-----------------------------------------|

E|---------------------------|
B|---------------------------|
G|-9------X---%-----%----%---|
D|-9------X---%-----%----%---|
A|-7------X------------------|
E|---------------------------|
Iron Maiden - The Fugitive
Iron Maiden - The Fugitive.gp3