Iron Maiden - The Loneliness Of The Long Distance Runner (3)

Iron Maiden - The Loneliness Of The Long Distance Runner (3)

Iron Maiden



Title: The Loneliness Of The Long Distance Runner
Album: Somewhere In Time
Artist: Iron Maiden
Author: Harris

Track 1: Left Guitar
E|-7-------|-3-------|-5-------|-7------5------|-7-------|-3-------|-5-------|-7------5------|
B|-7-------|-3-------|-5-------|-7------5------|-7-------|-3-------|-5-------|-7------5------|
G|-9-------|-5-------|-7-------|-9------7------|-9-------|-5-------|-7-------|-9------7------|
D|-9-------|-5-------|-7-------|-9------7------|-9-------|-5-------|-7-------|-9------7------|
A|-7-------|-3-------|-5-------|-7------5------|-7-------|-3-------|-5-------|-7------5------|
E|---------|---------|---------|---------------|---------|---------|---------|---------------|

E|-10------|-6-------|-8-------|-10-----8------|-10------|-6-------|-8-------|-10-----8------|
B|-10------|-6-------|-8-------|-10-----8------|-10------|-6-------|-8-------|-10-----8------|
G|-12------|-8-------|-10------|-12-----10-----|-12------|-8-------|-10------|-12-----10-----|
D|-12------|-8-------|-10------|-12-----10-----|-12------|-8-------|-10------|-12-----10-----|
A|-10------|-6-------|-8-------|-10-----8------|-10------|-6-------|-8-------|-10-----8------|
E|---------|---------|---------|---------------|---------|---------|---------|---------------|

E|---------|---------|---------|---------------|---------|---------|---------|---------------|
B|---------|---------|---------|---------------|---------|---------|---------|---------------|
G|-9-------|-5-------|-7-------|-9------7------|-9-------|-5-------|-7-------|-9------7------|
D|-9-------|-5-------|-7-------|-9------7------|-9-------|-5-------|-7-------|-9------7------|
A|-7-------|-3-------|-5-------|-7------5------|-7-------|-3-------|-5-------|-7------5------|
E|---------|---------|---------|---------------|---------|---------|---------|---------------|

E|---------|---------|---------|---------------|---------|---------|---------|--------------------|
B|---------|---------|---------|---------------|---------|---------|---------|--------------------|
G|-12------|-8-------|-10------|-12-----10-----|-12------|-8-------|-10------|-12-----10----------|
D|-12------|-8-------|-10------|-12-----10-----|-12------|-8-------|-10------|-12-----10----------|
A|-10------|-6-------|-8-------|-10-----8------|-10------|-6-------|-8-------|-10-----8------5----|
E|---------|---------|---------|---------------|---------|---------|---------|--------------------|

E|--------------------------------------------------|--------------------------------------------------|
B|--------------------------------------------------|--------------------------------------------------|
G|--------------------------------------------------|--------------------------------------------------|
D|--------------------------------------------------|--------------------------------------------------|
A|-5----5---5---5----5---5---5----5---5---5----7----|-7----5---5---5----5---5---5----5---5---5----8----|
E|--------------------------------------------------|--------------------------------------------------|

E|--------------------------------------------------|-----------------------------------------|
B|--------------------------------------------------|-----------------------------------------|
G|--------------------------------------------------|-----------------------------------------|
D|---------------------------------------------8----|-8----7----5---------5-------------------|
A|-8----5---5---5----5---5---5----5---5---5---------|----------------8---------8----7----5----|
E|--------------------------------------------------|-----------------------------------------|

E|--------------------------------------------------|--------------------------------------------------|
B|--------------------------------------------------|--------------------------------------------------|
G|--------------------------------------------------|--------------------------------------------------|
D|--------------------------------------------------|--------------------------------------------------|
A|-5----5---5---5----5---5---5----5---5---5----7----|-7----5---5---5----5---5---5----5---5---5----8----|
E|--------------------------------------------------|--------------------------------------------------|

E|--------------------------------------------------|-----------------------------------------|
B|--------------------------------------------------|-----------------------------------------|
G|--------------------------------------------------|-----------------------------------------|
D|---------------------------------------------8----|-8----7----5---------5-------------------|
A|-8----5---5---5----5---5---5----5---5---5---------|----------------8---------8----7----5----|
E|--------------------------------------------------|-----------------------------------------|

E|-----------------------------------------|-------------------|-----------------------------|
B|-----------------------------------------|-------------------|-----------------------------|
G|-----------------------------------------|-------------------|------------11---------------|
D|-----------5----7----8----7----5----9----|-9-------12---11---|-11----9----9------12---9----|
A|-7----8-----------------------------7----|-7-------10---9----|-9-----7-----------10---7----|
E|-----------------------------------------|-------------------|-----------------------------|

E|-------------------|-----------------------------|-------------------|-----------------------------|
B|-------------------|-----------------------------|-------------------|-----------------------------|
G|-------------------|------------11---------------|-------------------|------------13---------------|
D|-9-------12---11---|-11----9----9------12---11---|-11------14---13---|-13----11---11-----14---11---|
A|-7-------10---9----|-9-----7-----------10---9----|-9-------12---11---|-11----9-----------12---9----|
E|-------------------|-----------------------------|-------------------|-----------------------------|

E|-------------------|-----------------------------|-------------------------|-----------------------------------------|
B|-------------------|-----------------------------|-------------------------|-----------------------------------------|
G|-------------------|------------13---------------|-%----------13-----------|-7--------------7--------------7---------|
D|-11------14---13---|-13----11---11-----14--------|-%-----11---11-----14----|-7--------------7--------------7---------|
A|-9-------12---11---|-11----9-----------12---5----|-------9-----------12----|-5----5----5----5----5----5----5----5----|
E|-------------------|-----------------------------|-------------------------|-----------------------------------------|

E|-------------------------------------|-----------------------------------------|-------------------------------------|
B|-------------------------------------|-----------------------------------------|-------------------------------------|
G|------7--------------7---------7-----|-3--------------3--------------3---------|------3--------------3---------3-----|
D|------7--------------7---------7-----|-3--------------3--------------3---------|------3--------------3---------3-----|
A|-5----5----5----5----5----5----5-----|-1----1----1----1----1----1----1----1----|-1----1----1----1----1----1----1-----|
E|-------------------------------------|-----------------------------------------|-------------------------------------|

E|-----------------------------------------|-------------------------------------|-----------------------------------------|
B|-----------------------------------------|-------------------------------------|-----------------------------------------|
G|-5--------------5--------------5---------|------5--------------5---------5-----|-----------------------------------------|
D|-5--------------5--------------5---------|------5--------------5---------5-----|-3--------------3--------------3---------|
A|-3----3----3----3----3----3----3----3----|-3----3----3----3----3----3----3-----|-3--------------3--------------3---------|
E|-----------------------------------------|-------------------------------------|-1----1----1----1----1----1----1----1----|

E|-----------------------------------------|-----------------------------------------|
B|-----------------------------------------|-----------------------------------------|
G|-----------------------------------------|-7--------------7--------------7---------|
D|------3--------------3---------3---------|-7--------------7--------------7---------|
A|------3--------------3---------3---------|-5----5----5----5----5----5----5----5----|
E|-1----1----1----1----1----1----1----1----|-----------------------------------------|

E|-------------------------------------|-----------------------------------------|-------------------------------------|
B|-------------------------------------|-----------------------------------------|-------------------------------------|
G|------7--------------7---------7-----|-3--------------3--------------3---------|------3--------------3---------3-----|
D|------7--------------7---------7-----|-3--------------3--------------3---------|------3--------------3---------3-----|
A|-5----5----5----5----5----5----5-----|-1----1----1----1----1----1----1----1----|-1----1----1----1----1----1----1-----|
E|-------------------------------------|-----------------------------------------|-------------------------------------|

E|-----------------------------------------|-------------------------------------|-----------------------------------------|
B|-----------------------------------------|-------------------------------------|-----------------------------------------|
G|-5--------------5--------------5---------|------5--------------5---------5-----|-7--------------7--------------7---------|
D|-5--------------5--------------5---------|------5--------------5---------5-----|-7--------------7--------------7---------|
A|-3----3----3----3----3----3----3----3----|-3----3----3----3----3----3----3-----|-5----5----5----5----5----5----5----5----|
E|-----------------------------------------|-------------------------------------|-----------------------------------------|

E|-------------------------------------|----------------------------------|-----------------------------------------|
B|-------------------------------------|-10----8----10---8----------------|-10---8-----------------------------8----|
G|------7--------------7---------7-----|----------------------10----9-----|-----------10---9----10---9----10--------|
D|------7--------------7---------7-----|----------------------------------|-----------------------------------------|
A|-5----5----5----5----5----5----5-----|----------------------------------|-----------------------------------------|
E|-------------------------------------|----------------------------------|-----------------------------------------|

E|-----------------------------------------|---------|----------------------------------|
B|-10---8-----------------------------10---|---------|-10----8----10---8----------------|
G|-----------10---9----10---9----10--------|-10------|----------------------10----9-----|
D|-----------------------------------------|---------|----------------------------------|
A|-----------------------------------------|---------|----------------------------------|
E|-----------------------------------------|---------|----------------------------------|

E|-----------------------------------------|-----------------------------------------|
B|-10---8-----------------------------8----|-10---8-----------------------------10---|
G|-----------10---9----10---9----10--------|-----------10---9----10---9----10--------|
D|-----------------------------------------|-----------------------------------------|
A|-----------------------------------------|-----------------------------------------|
E|-----------------------------------------|-----------------------------------------|

E|---------|---------------------------------------------|-----------------------------------|
B|---------|---------------------------------------------|-----------------------------------|
G|-10------|-----------------3---------------------3-----|-----------------3----3-----5------|
D|---------|-----------------3---------------------3-----|-----------------3----3-----5------|
A|---------|-1---1---1---1---1-----1---1---1---1---1-----|-1---1---1---1---1----1-----3------|
E|---------|---------------------------------------------|-----------------------------------|

E|-----------------------------------------|---------|---------------------|---------|
B|-10---8-----------------------------10---|---------|-12-----10-----------|---------|
G|-----------10---9----10---9----10--------|-10------|---------------11----|-12------|
D|-----------------------------------------|---------|---------------------|---------|
A|-----------------------------------------|---------|---------------------|---------|
E|-----------------------------------------|---------|---------------------|---------|

E|---------------------|---------------------|---------------------|---------------------|
B|-12-----10-----------|---------------10----|-12-----10-----------|-12-----10-----------|
G|---------------11----|-11-----12-----------|---------------11----|---------------11----|
D|---------------------|---------------------|---------------------|---------------------|
A|---------------------|---------------------|---------------------|---------------------|
E|---------------------|---------------------|---------------------|---------------------|

E|---------|---------------------|---------------------|---------|---------------------|
B|---------|---------------------|-12-----10-----------|---------|-12-----10-----------|
G|-9-------|-9------11-----12----|---------------11----|-12------|---------------11----|
D|---------|---------------------|---------------------|---------|---------------------|
A|---------|---------------------|---------------------|---------|---------------------|
E|---------|---------------------|---------------------|---------|---------------------|

E|---------------------|---------------------|---------------------|---------------------|
B|---------------10----|-12-----10-----------|---------------10----|-12-----10-----------|
G|-11-----12-----------|---------------11----|-11-----12-----------|---------------11----|
D|---------------------|---------------------|---------------------|---------------------|
A|---------------------|---------------------|---------------------|---------------------|
E|---------------------|---------------------|---------------------|---------------------|

E|---------------------|---------------------|---------|---------------------|---------------------|
B|---------------10----|-12-----10-----------|---------|-12-----10-----------|---------------10----|
G|-11-----12-----------|---------------11----|-12------|---------------11----|-11-----12-----------|
D|---------------------|---------------------|---------|---------------------|---------------------|
A|---------------------|---------------------|---------|---------------------|---------------------|
E|---------------------|---------------------|---------|---------------------|---------------------|

E|---------------------|---------------------|-12-----10-----------|---------------------|
B|-12-----10-----------|---------------10----|---------------13----|-13-----12-----10----|
G|---------------11----|-11-----12-----------|---------------------|---------------------|
D|---------------------|---------------------|---------------------|---------------------|
A|---------------------|---------------------|---------------------|---------------------|
E|---------------------|---------------------|---------------------|---------------------|

E|-----------------------------------------|-----------------------------------------|
B|-----------------------------------------|-----------------------------------------|
G|-9--------------9--------------9---------|------9--------------9---------9---------|
D|-9--------------9--------------9---------|------9--------------9---------9---------|
A|-7----7----7----7----7----7----7----7----|-7----7----7----7----7----7----7----7----|
E|-----------------------------------------|-----------------------------------------|

E|-----------------------------------------|-----------------------------------------|
B|-----------------------------------------|-----------------------------------------|
G|-5--------------5--------------5---------|------5--------------5---------5---------|
D|-5--------------5--------------5---------|------5--------------5---------5---------|
A|-3----3----3----3----3----3----3----3----|-3----3----3----3----3----3----3----3----|
E|-----------------------------------------|-----------------------------------------|

E|-----------------------------------------|-----------------------------------------|
B|-----------------------------------------|-----------------------------------------|
G|-7--------------7--------------7---------|------7--------------7---------7---------|
D|-7--------------7--------------7---------|------7--------------7---------7---------|
A|-5----5----5----5----5----5----5----5----|-5----5----5----5----5----5----5----5----|
E|-----------------------------------------|-----------------------------------------|

E|-----------------------------------------|-----------------------------------------|
B|-----------------------------------------|-----------------------------------------|
G|-2--------------2--------------2---------|-5--------------5--------------7---------|
D|-2--------------2--------------2---------|-5--------------5--------------7---------|
A|-0----0----0----0----0----0----0----0----|-3----3----3----3----3----3----5----5----|
E|-----------------------------------------|-----------------------------------------|

E|-----------------------------------------|-----------------------------------------|
B|-----------------------------------------|-----------------------------------------|
G|-9--------------9--------------9---------|------9--------------9---------9---------|
D|-9--------------9--------------9---------|------9--------------9---------9---------|
A|-7----7----7----7----7----7----7----7----|-7----7----7----7----7----7----7----7----|
E|-----------------------------------------|-----------------------------------------|

E|-----------------------------------------|-----------------------------------------|
B|-----------------------------------------|-----------------------------------------|
G|-5--------------5--------------5---------|------5--------------5---------5---------|
D|-5--------------5--------------5---------|------5--------------5---------5---------|
A|-3----3----3----3----3----3----3----3----|-3----3----3----3----3----3----3----3----|
E|-----------------------------------------|-----------------------------------------|

E|-----------------------------------------|-----------------------------------------|
B|-----------------------------------------|-----------------------------------------|
G|-2--------------2--------------2---------|------2--------------2---------2---------|
D|-2--------------2--------------2---------|------2--------------2---------2---------|
A|-0----0----0----0----0----0----0----0----|-0----0----0----0----0----0----0----0----|
E|-----------------------------------------|-----------------------------------------|

E|-----------------------------------------|-----------------------------------------|
B|-----------------------------------------|-----------------------------------------|
G|-5--------------5--------------5---------|-7--------------7--------------7---------|
D|-5--------------5--------------5---------|-7--------------7--------------7---------|
A|-3----3----3----3----3----3----3----3----|-5----5----5----5----5----5----5----5----|
E|-----------------------------------------|-----------------------------------------|

E|---------|---------|---------|---------|---------|---------|---------|---------|---------|
B|---------|---------|---------|---------|---------|---------|---------|---------|---------|
G|---------|-7-------|-9-------|-5-------|---------|-7-------|-5-------|-5-------|---------|
D|-5-------|-7-------|-9-------|-5-------|-5-------|-7-------|-5-------|-5-------|-5-------|
A|-5-------|-5-------|-7-------|-3-------|-5-------|-5-------|-3-------|-3-------|-5-------|
E|-3-------|---------|---------|---------|-3-------|---------|---------|---------|-3-------|

E|---------|---------|---------|---------|---------|---------|---------|-------------------------------------|
B|---------|---------|---------|---------|---------|---------|---------|-13----15----17----13----15----17----|
G|-7-------|-9-------|-5-------|---------|-7-------|-5-------|-5-------|-14----16----17----14----16----17----|
D|-7-------|-9-------|-5-------|-5-------|-7-------|-5-------|-5-------|-------------------------------------|
A|-5-------|-7-------|-3-------|-5-------|-5-------|-3-------|-3-------|-------------------------------------|
E|---------|---------|---------|-3-------|---------|---------|---------|-------------------------------------|

E|-13----------------------------------|-15------|-15------|-15---13-------------13------------------|
B|-15----17----15----13----15----17----|---------|---------|-----------17---15--------17---15---13---|
G|-------17----16----14----16----17----|---------|---------|-----------------------------------------|
D|-------------------------------------|-17------|-17------|-----------------------------------------|
A|-------------------------------------|---------|---------|-----------------------------------------|
E|-------------------------------------|---------|---------|-----------------------------------------|

E|-----------------------------------------|---------|---------|-------------------------------------|
B|-17---15---13---12---15---13---12--------|-0-------|-0-------|-13----12---10--------10--------10---|
G|------------------------------------12---|-14------|-14------|-----------------12--------12--------|
D|-----------------------------------------|-0-------|-0-------|-------------------------------------|
A|-----------------------------------------|---------|---------|-------------------------------------|
E|-----------------------------------------|---------|---------|-------------------------------------|

E|----------------------------|-----------------------------------------------|---------------------------------------|
B|----------------------------|-----------------------------------------------|---------------------------------------|
G|-12---10---9----------------|-7---------------------------------------------|---------------------------------------|
D|----------------12---9------|------10--9---10---9----7----9-----7-----------|---------------------------------------|
A|----------------------------|-----------------------------------------10----|-7-------------------7-----10----7-----|
E|----------------------------|-----------------------------------------------|------10---8----7----------------------|

E|----------------------------|-------------------------------------|-------12-------------------------|
B|-----------10---12---12-----|-12------------------------12---13---|-15---------15-----15---15---13---|
G|------9---------------------|------12--14----------14-------------|----------------------------------|
D|-7--------------------------|----------------14-------------------|----------------------------------|
A|----------------------------|-------------------------------------|----------------------------------|
E|----------------------------|-------------------------------------|----------------------------------|

E|---------|------17---17--------17---17--------17---|-------------------------------------|
B|-15------|-20-------------20-------------20--------|-20---18---17------------------------|
G|---------|-----------------------------------------|----------------19---17---16---------|
D|---------|-----------------------------------------|-------------------------------17----|
A|---------|-----------------------------------------|-------------------------------------|
E|---------|-----------------------------------------|-------------------------------------|

E|--------------------------------------------------|--------------------------------------------------|
B|--------------------------------------------------|--------------------------------------------------|
G|--------------------------------------------------|--------------------------------------------------|
D|--------------------------------------------------|--------------------------------------------------|
A|-5----5---5---5----5---5---5----5---5---5----7----|-7----5---5---5----5---5---5----5---5---5----8----|
E|--------------------------------------------------|--------------------------------------------------|

E|--------------------------------------------------|-----------------------------------------|
B|--------------------------------------------------|-----------------------------------------|
G|--------------------------------------------------|-----------------------------------------|
D|---------------------------------------------8----|-8----7----5---------5-------------------|
A|-8----5---5---5----5---5---5----5---5---5---------|----------------8---------8----7----5----|
E|--------------------------------------------------|-----------------------------------------|

E|--------------------------------------------------|--------------------------------------------------|
B|--------------------------------------------------|--------------------------------------------------|
G|--------------------------------------------------|--------------------------------------------------|
D|--------------------------------------------------|--------------------------------------------------|
A|-5----5---5---5----5---5---5----5---5---5----7----|-7----5---5---5----5---5---5----5---5---5----8----|
E|--------------------------------------------------|--------------------------------------------------|

E|--------------------------------------------------|-----------------------------------------|
B|--------------------------------------------------|-----------------------------------------|
G|--------------------------------------------------|-----------------------------------------|
D|---------------------------------------------8----|-8----7----5---------5-------------------|
A|-8----5---5---5----5---5---5----5---5---5---------|----------------8---------8----7----5----|
E|--------------------------------------------------|-----------------------------------------|

E|-----------------------------------------|-------------------|-----------------------------|
B|-----------------------------------------|-------------------|-----------------------------|
G|-----------------------------------------|-------------------|------------11---------------|
D|-----------5----7----8----7----5----9----|-9-------12---11---|-11----9----9------12---9----|
A|-7----8-----------------------------7----|-7-------10---9----|-9-----7-----------10---7----|
E|-----------------------------------------|-------------------|-----------------------------|

E|-------------------|-----------------------------|-------------------|-----------------------------|
B|-------------------|-----------------------------|-------------------|-----------------------------|
G|-------------------|------------11---------------|-------------------|------------13---------------|
D|-9-------12---11---|-11----9----9------12---11---|-11------14---13---|-13----11---11-----14---11---|
A|-7-------10---9----|-9-----7-----------10---9----|-9-------12---11---|-11----9-----------12---9----|
E|-------------------|-----------------------------|-------------------|-----------------------------|

E|-------------------|-------------------------|-----------------------------------------|
B|-------------------|-------------------------|-----------------------------------------|
G|-------------------|------------13-----------|-7--------------7--------------7---------|
D|-11------14---13---|-13----11---11-----14----|-7--------------7--------------7---------|
A|-9-------12---11---|-11----9-----------12----|-5----5----5----5----5----5----5----5----|
E|-------------------|-------------------------|-----------------------------------------|

E|-------------------------------------|-----------------------------------------|-------------------------------------|
B|-------------------------------------|-----------------------------------------|-------------------------------------|
G|------7--------------7---------7-----|-3--------------3--------------3---------|------3--------------3---------3-----|
D|------7--------------7---------7-----|-3--------------3--------------3---------|------3--------------3---------3-----|
A|-5----5----5----5----5----5----5-----|-1----1----1----1----1----1----1----1----|-1----1----1----1----1----1----1-----|
E|-------------------------------------|-----------------------------------------|-------------------------------------|

E|-----------------------------------------|-------------------------------------|-----------------------------------------|
B|-----------------------------------------|-------------------------------------|-----------------------------------------|
G|-5--------------5--------------5---------|------5--------------5---------5-----|-----------------------------------------|
D|-5--------------5--------------5---------|------5--------------5---------5-----|-3--------------3--------------3---------|
A|-3----3----3----3----3----3----3----3----|-3----3----3----3----3----3----3-----|-3--------------3--------------3---------|
E|-----------------------------------------|-------------------------------------|-1----1----1----1----1----1----1----1----|

E|-----------------------------------------|-----------------------------------------|
B|-----------------------------------------|-----------------------------------------|
G|-----------------------------------------|-7--------------7--------------7---------|
D|------3--------------3---------3---------|-7--------------7--------------7---------|
A|------3--------------3---------3---------|-5----5----5----5----5----5----5----5----|
E|-1----1----1----1----1----1----1----1----|-----------------------------------------|

E|-------------------------------------|-----------------------------------------|-------------------------------------|
B|-------------------------------------|-----------------------------------------|-------------------------------------|
G|------7--------------7---------7-----|-3--------------3--------------3---------|------3--------------3---------3-----|
D|------7--------------7---------7-----|-3--------------3--------------3---------|------3--------------3---------3-----|
A|-5----5----5----5----5----5----5-----|-1----1----1----1----1----1----1----1----|-1----1----1----1----1----1----1-----|
E|-------------------------------------|-----------------------------------------|-------------------------------------|

E|-----------------------------------------|-------------------------------------|-----------------------------------------|
B|-----------------------------------------|-------------------------------------|-----------------------------------------|
G|-5--------------5--------------5---------|------5--------------5---------5-----|-7--------------7--------------7---------|
D|-5--------------5--------------5---------|------5--------------5---------5-----|-7--------------7--------------7---------|
A|-3----3----3----3----3----3----3----3----|-3----3----3----3----3----3----3-----|-5----5----5----5----5----5----5----5----|
E|-----------------------------------------|-------------------------------------|-----------------------------------------|

E|-------------------------------------|---------|---------|---------|---------------|
B|-------------------------------------|---------|---------|---------|---------------|
G|------7--------------7---------7-----|-9-------|-5-------|-7-------|-9------7------|
D|------7--------------7---------7-----|-9-------|-5-------|-7-------|-9------7------|
A|-5----5----5----5----5----5----5-----|-7-------|-3-------|-5-------|-7------5------|
E|-------------------------------------|---------|---------|---------|---------------|

E|---------|---------|---------|---------------|---------|---------|---------|---------------|
B|---------|---------|---------|---------------|---------|---------|---------|---------------|
G|-9-------|-5-------|-7-------|-9------7------|-12------|-8-------|-10------|-12-----10-----|
D|-9-------|-5-------|-7-------|-9------7------|-12------|-8-------|-10------|-12-----10-----|
A|-7-------|-3-------|-5-------|-7------5------|-10------|-6-------|-8-------|-10-----8------|
E|---------|---------|---------|---------------|---------|---------|---------|---------------|

E|---------|---------|---------|---------------|-------------------------|-7-----------------------|
B|---------|---------|---------|---------------|-8------7----8------10---|--------10---8------7----|
G|-12------|-8-------|-10------|-12-----10-----|-------------------------|-------------------------|
D|-12------|-8-------|-10------|-12-----10-----|-------------------------|-------------------------|
A|-10------|-6-------|-8-------|-10-----8------|-------------------------|-------------------------|
E|---------|---------|---------|---------------|-------------------------|-------------------------|

E|-------------------------|---------|-------------------------|-7-----------------------|
B|-8------7----------------|---------|-8------7----8------10---|--------10---8------7----|
G|-------------9------7----|-9-------|-------------------------|-------------------------|
D|-------------------------|---------|-------------------------|-------------------------|
A|-------------------------|---------|-------------------------|-------------------------|
E|-------------------------|---------|-------------------------|-------------------------|

E|--------------------10---|-7-------|--------------------10---|-12-----10---------------|
B|-8------7----8-----------|---------|-12-----10---12----------|-------------12-----10---|
G|-------------------------|---------|-------------------------|-------------------------|
D|-------------------------|---------|-------------------------|-------------------------|
A|-------------------------|---------|-------------------------|-------------------------|
E|-------------------------|---------|-------------------------|-------------------------|

E|-------------------------|---------|-------------------------|-7-----------------------|
B|-12-----10---------------|---------|-8------7----8------10---|--------10---8------7----|
G|-------------12-----11---|-12------|-------------------------|-------------------------|
D|-------------------------|---------|-------------------------|-------------------------|
A|-------------------------|---------|-------------------------|-------------------------|
E|-------------------------|---------|-------------------------|-------------------------|

E|-------------------------|---------|--------------------------------|---------|---------|
B|-8------7----------------|---------|-8-----7---8---7----------------|---------|---------|
G|-------------9------7----|-9-------|--------------------9-----7-----|---------|---------|
D|-------------------------|---------|--------------------------------|-9-------|-9-------|
A|-------------------------|---------|--------------------------------|---------|---------|
E|-------------------------|---------|--------------------------------|---------|---------|
Iron Maiden - The Loneliness Of The Long Distance Runner (3)
Iron Maiden - The Loneliness Of The Long Distance Runner (3).gp3