Iron Maiden - the nomad

Iron Maiden



Title: The Nomad
Album: Brave New World
Artist: Iron Maiden
Author: Murray / Harris

Track 1: Guitare 1
E|--------------------------------------------------------|--------------------------------------------------------|
B|--------------------------------------------------------|--------------------------------------------------------|
G|-----------------9---10--9------------9------------9----|-----------------9---10--9------------7------------7----|
D|-----------------9---10--9------------9------------9----|-----------------9---10--9------------7------------7----|
A|-----------------7---8---7------------7------------7----|-----------------7---8---7------------5------------5----|
E|-0---0---0---0----------------0---0--------0---0--------|-0---0---0---0----------------0---0--------0---0--------|

E|--------------------------------------------------------|--------------------------------------------------------|
B|--------------------------------------------------------|--------------------------------------------------------|
G|-----------------9---10--9------------9------------9----|-----------------9---10--9------------5-----------------|
D|-----------------9---10--9------------9------------9----|-----------------9---10--9------------5------------7----|
A|-----------------7---8---7------------7------------7----|-----------------7---8---7------------3------------7----|
E|-0---0---0---0----------------0---0--------0---0--------|-0---0---0---0----------------0---0--------0---0---5----|

E|-------------------------------------|--------------------------------------------------------|
B|-------------------------------------|--------------------------------------------------------|
G|-----------------9---10--9----%------|-----------------9---10--9------------9------------9----|
D|-----------------9---10--9----%------|-----------------9---10--9------------9------------9----|
A|-----------------7---8---7-----------|-----------------7---8---7------------7------------7----|
E|-0---0---0---0-----------------------|-0---0---0---0----------------0---0--------0---0--------|

E|--------------------------------------------------------|--------------------------------------------------------|
B|--------------------------------------------------------|--------------------------------------------------------|
G|-----------------9---10--9------------7------------7----|-----------------9---10--9------------9------------9----|
D|-----------------9---10--9------------7------------7----|-----------------9---10--9------------9------------9----|
A|-----------------7---8---7------------5------------5----|-----------------7---8---7------------7------------7----|
E|-0---0---0---0----------------0---0--------0---0--------|-0---0---0---0----------------0---0--------0---0--------|

E|--------------------------------------------------------|-------------------------------------|
B|--------------------------------------------------------|-------------------------------------|
G|-----------------9---10--9------------5-----------------|-%----%--------------------7---------|
D|-----------------9---10--9------------5------------7----|-%----%----9-----9----9----7----9----|
A|-----------------7---8---7------------3------------7----|-----------9-----9----9----5----9----|
E|-0---0---0---0----------------0---0--------0---0---5----|-----------7-----7----7---------7----|

E|-------------------------------------|-------------------------------------|-------------------------------------|
B|-------------------------------------|-------------------------------------|-------------------------------------|
G|-%----%----------%----2----%----2----|-%----%----------%---------%---------|-%----%----------%----5----%----5----|
D|-%----%----9-----%----2----%----2----|-%----%----9-----%----9----%----9----|-%----%----9-----%----5----%----5----|
A|-----------9----------0---------0----|-----------9----------9---------9----|-----------9----------3---------3----|
E|-----------7-------------------------|-----------7----------7---------7----|-----------7-------------------------|

E|--------------------------------------------------------|--------------------------------------------------------|
B|--------------------------------------------------------|--------------------------------------------------------|
G|-----------------9---10--9------------9------------9----|-----------------9---10--9------------7------------7----|
D|-----------------9---10--9------------9------------9----|-----------------9---10--9------------7------------7----|
A|-----------------7---8---7------------7------------7----|-----------------7---8---7------------5------------5----|
E|-0---0---0---0----------------0---0--------0---0--------|-0---0---0---0----------------0---0--------0---0--------|

E|--------------------------------------------------------|--------------------------------------------------------|
B|--------------------------------------------------------|--------------------------------------------------------|
G|-----------------9---10--9------------9------------9----|-----------------9---10--9------------5-----------------|
D|-----------------9---10--9------------9------------9----|-----------------9---10--9------------5------------7----|
A|-----------------7---8---7------------7------------7----|-----------------7---8---7------------3------------7----|
E|-0---0---0---0----------------0---0--------0---0--------|-0---0---0---0----------------0---0--------0---0---5----|

E|---------|-------------------------|---------|-------------------------|--------------------------------------------------------|
B|---------|-------------------------|---------|-------------------------|--------------------------------------------------------|
G|---------|-------------------------|---------|-------------------------|-----------------9---10--9------------9------------9----|
D|-9-------|-4------5----5-----4-----|-9-------|-4------5----5-----4-----|-----------------9---10--9------------9------------9----|
A|-9-------|-4------5----5-----4-----|-9-------|-4------5----5-----4-----|-----------------7---8---7------------7------------7----|
E|-7-------|-2------3----3-----2-----|-7-------|-2------3----3-----2-----|-0---0---0---0----------------0---0--------0---0--------|

E|--------------------------------------------------------|--------------------------------------------------------|
B|--------------------------------------------------------|--------------------------------------------------------|
G|-----------------9---10--9------------7------------7----|-----------------9---10--9------------9------------9----|
D|-----------------9---10--9------------7------------7----|-----------------9---10--9------------9------------9----|
A|-----------------7---8---7------------5------------5----|-----------------7---8---7------------7------------7----|
E|-0---0---0---0----------------0---0--------0---0--------|-0---0---0---0----------------0---0--------0---0--------|

E|--------------------------------------------------------|--------------------------------------------------------|
B|--------------------------------------------------------|--------------------------------------------------------|
G|-----------------9---10--9------------5-----------------|-----------------9---10--9------------9------------9----|
D|-----------------9---10--9------------5------------7----|-----------------9---10--9------------9------------9----|
A|-----------------7---8---7------------3------------7----|-----------------7---8---7------------7------------7----|
E|-0---0---0---0----------------0---0--------0---0---5----|-0---0---0---0----------------0---0--------0---0--------|

E|--------------------------------------------------------|--------------------------------------------------------|
B|--------------------------------------------------------|--------------------------------------------------------|
G|-----------------9---10--9------------7------------7----|-----------------9---10--9------------9------------9----|
D|-----------------9---10--9------------7------------7----|-----------------9---10--9------------9------------9----|
A|-----------------7---8---7------------5------------5----|-----------------7---8---7------------7------------7----|
E|-0---0---0---0----------------0---0--------0---0--------|-0---0---0---0----------------0---0--------0---0--------|

E|--------------------------------------------------------|-------------------|-------------------------|
B|--------------------------------------------------------|-------------------|-------------------------|
G|-----------------9---10--9------------5-----------------|-4-------4---------|--------------------4----|
D|-----------------9---10--9------------5------------7----|-4-------4----4----|-4------7----7------4----|
A|-----------------7---8---7------------3------------7----|-2-------2----4----|-4------7----7------2----|
E|-0---0---0---0----------------0---0--------0---0---5----|--------------2----|-2------5----5-----------|

E|-------------------|-------------------------|-------------------|-------------------------|
B|-------------------|-------------------------|-------------------|-------------------------|
G|-4-------4---------|--------------------4----|-4-------4---------|--------------------4----|
D|-4-------4----4----|-4------7----7------4----|-4-------4----4----|-4------7----7------4----|
A|-2-------2----4----|-4------7----7------2----|-2-------2----4----|-4------7----7------2----|
E|--------------2----|-2------5----5-----------|--------------2----|-2------5----5-----------|

E|-------------------|--------------------|--------------------------------------------------------|
B|-------------------|--------------------|--------------------------------------------------------|
G|-4-------4---------|--------------------|-----------------9---10--9------------9------------9----|
D|-4-------4----4----|-4------7----7------|-----------------9---10--9------------9------------9----|
A|-2-------2----4----|-4------7----7------|-----------------7---8---7------------7------------7----|
E|--------------2----|-2------5----5------|-0---0---0---0----------------0---0--------0---0--------|

E|--------------------------------------------------------|--------------------------------------------------------|
B|--------------------------------------------------------|--------------------------------------------------------|
G|-----------------9---10--9------------7------------7----|-----------------9---10--9------------9------------9----|
D|-----------------9---10--9------------7------------7----|-----------------9---10--9------------9------------9----|
A|-----------------7---8---7------------5------------5----|-----------------7---8---7------------7------------7----|
E|-0---0---0---0----------------0---0--------0---0--------|-0---0---0---0----------------0---0--------0---0--------|

E|--------------------------------------------------------|--------------------------------------------------------|
B|--------------------------------------------------------|--------------------------------------------------------|
G|-----------------9---10--9------------5-----------------|-----------------9---10--9------------9------------9----|
D|-----------------9---10--9------------5------------7----|-----------------9---10--9------------9------------9----|
A|-----------------7---8---7------------3------------7----|-----------------7---8---7------------7------------7----|
E|-0---0---0---0----------------0---0--------0---0---5----|-0---0---0---0----------------0---0--------0---0--------|

E|--------------------------------------------------------|--------------------------------------------------------|
B|--------------------------------------------------------|--------------------------------------------------------|
G|-----------------9---10--9------------7------------7----|-----------------9---10--9------------9------------9----|
D|-----------------9---10--9------------7------------7----|-----------------9---10--9------------9------------9----|
A|-----------------7---8---7------------5------------5----|-----------------7---8---7------------7------------7----|
E|-0---0---0---0----------------0---0--------0---0--------|-0---0---0---0----------------0---0--------0---0--------|

E|--------------------------------------------------------|---------------------------------|
B|--------------------------------------------------------|---------------------------------|
G|-----------------9---10--9------------5-----------------|-9------9----9----9----9----9----|
D|-----------------9---10--9------------5------------7----|-9------9----9----9----9----9----|
A|-----------------7---8---7------------3------------7----|-7------7----7----7----7----7----|
E|-0---0---0---0----------------0---0--------0---0---5----|-0------0----0----0----0----0----|

E|--------------------|-------------------------|-------------------------------------|
B|--------------------|-------------------------|-------------------------------------|
G|-9------4-----5-----|-7------7----7------7----|-7-----------------------------------|
D|-9------4-----5-----|-7------7----7------7----|-7-----4----5----7----7----5----4----|
A|-7------2-----3-----|-5------5----5------5----|-5-----------------------------------|
E|-0------------------|-------------------------|-------------------------------------|

E|---------------------------------|--------------------|-------------------------|
B|---------------------------------|--------------------|-------------------------|
G|-9------9----9----9----9----9----|-9------4-----------|-7------7----7------7----|
D|-9------9----9----9----9----9----|-9------4-----5-----|-7------7----7------7----|
A|-7------7----7----7----7----7----|-7------2-----5-----|-5------5----5------5----|
E|-0------0----0----0----0----0----|-0------------3-----|-------------------------|

E|-------------------------------------|---------------------------------|--------------------|
B|-------------------------------------|---------------------------------|--------------------|
G|-7-----------------------------------|-9------9----9----9----9----9----|-9------4-----5-----|
D|-7-----4----5----7----7----5----4----|-9------9----9----9----9----9----|-9------4-----5-----|
A|-5-----------------------------------|-7------7----7----7----7----7----|-7------2-----3-----|
E|-------------------------------------|-0------0----0----0----0----0----|-0------------------|

E|-------------------------|-------------------------------------|---------------------------------|
B|-------------------------|-------------------------------------|---------------------------------|
G|-7------7----7------7----|-7-----------------------------------|-9------9----9----9----9----9----|
D|-7------7----7------7----|-7-----4----5----7----7----5----4----|-9------9----9----9----9----9----|
A|-5------5----5------5----|-5-----------------------------------|-7------7----7----7----7----7----|
E|-------------------------|-------------------------------------|-0------0----0----0----0----0----|

E|--------------------|-------------------------|-------------------------------------|
B|--------------------|-------------------------|-------------------------------------|
G|-9------4-----------|-7------7----7------7----|-7-----------------------------------|
D|-9------4-----5-----|-7------7----7------7----|-7-----4----5----7----7----5----4----|
A|-7------2-----5-----|-5------5----5------5----|-5-----------------------------------|
E|-0------------3-----|-------------------------|-------------------------------------|

E|--------------------------------------------------------|--------------------------------------------------------|
B|--------------------------------------------------------|--------------------------------------------------------|
G|-----------------9---10--9------------9------------9----|-----------------9---10--9------------7------------7----|
D|-----------------9---10--9------------9------------9----|-----------------9---10--9------------7------------7----|
A|-----------------7---8---7------------7------------7----|-----------------7---8---7------------5------------5----|
E|-0---0---0---0----------------0---0--------0---0--------|-0---0---0---0----------------0---0--------0---0--------|

E|--------------------------------------------------------|--------------------------------------------------------|
B|--------------------------------------------------------|--------------------------------------------------------|
G|-----------------9---10--9------------9------------9----|-----------------9---10--9------------5-----------------|
D|-----------------9---10--9------------9------------9----|-----------------9---10--9------------5------------7----|
A|-----------------7---8---7------------7------------7----|-----------------7---8---7------------3------------7----|
E|-0---0---0---0----------------0---0--------0---0--------|-0---0---0---0----------------0---0--------0---0---5----|

E|--------------------------------------------------------|--------------------------------------------------------|
B|--------------------------------------------------------|--------------------------------------------------------|
G|-----------------9---10--9------------9------------9----|-----------------9---10--9------------7------------7----|
D|-----------------9---10--9------------9------------9----|-----------------9---10--9------------7------------7----|
A|-----------------7---8---7------------7------------7----|-----------------7---8---7------------5------------5----|
E|-0---0---0---0----------------0---0--------0---0--------|-0---0---0---0----------------0---0--------0---0--------|

E|--------------------------------------------------------|--------------------------------------------------------|
B|--------------------------------------------------------|--------------------------------------------------------|
G|-----------------9---10--9------------9------------9----|-----------------9---10--9------------5-----------------|
D|-----------------9---10--9------------9------------9----|-----------------9---10--9------------5------------7----|
A|-----------------7---8---7------------7------------7----|-----------------7---8---7------------3------------7----|
E|-0---0---0---0----------------0---0--------0---0--------|-0---0---0---0----------------0---0--------0---0---5----|

E|---------|-------------------------|---------|-------------------------|----------------------------------|
B|---------|-------------------------|---------|-------------------------|----------------------------------|
G|---------|-------------------------|---------|-------------------------|-9---9---9---9---10---9----%------|
D|-9-------|-4------5----5-----4-----|-9-------|-4------5----5-----4-----|-9---9---9---9---10---9----%------|
A|-9-------|-4------5----5-----4-----|-9-------|-4------5----5-----4-----|-7---7---7---7---8----7-----------|
E|-7-------|-2------3----3-----2-----|-7-------|-2------3----3-----2-----|----------------------------------|

E|-------------------|-------------------------|-------------------|-------------------------|
B|-------------------|-------------------------|-------------------|-------------------------|
G|-4-------4---------|--------------------4----|-4-------4---------|--------7----7------4----|
D|-4-------4----4----|-4------7----7------4----|-4-------4----4----|-4------7----7------4----|
A|-2-------2----4----|-4------7----7------2----|-2-------2----4----|-4------5----5------2----|
E|--------------2----|-2------5----5-----------|--------------2----|-2-----------------------|

E|-------------------|-------------------------|-------------------|--------------------|
B|-------------------|-------------------------|-------------------|--------------------|
G|-4-------4---------|--------------------4----|-4-------4---------|--------7----7------|
D|-4-------4----4----|-4------7----7------4----|-4-------4----4----|-4------7----7------|
A|-2-------2----4----|-4------7----7------2----|-2-------2----4----|-4------5----5------|
E|--------------2----|-2------5----5-----------|--------------2----|-2------------------|

E|---------------------------------|--------------------|-------------------------|
B|---------------------------------|--------------------|-------------------------|
G|-9------9----9----9----9----9----|-9------4-----5-----|-7------7----7------7----|
D|-9------9----9----9----9----9----|-9------4-----5-----|-7------7----7------7----|
A|-7------7----7----7----7----7----|-7------2-----3-----|-5------5----5------5----|
E|-0------0----0----0----0----0----|-0------------------|-------------------------|

E|-------------------------------------|---------------------------------|--------------------|
B|-------------------------------------|---------------------------------|--------------------|
G|-7-----------------------------------|-9------9----9----9----9----9----|-9------4-----------|
D|-7-----4----5----7----7----5----4----|-9------9----9----9----9----9----|-9------4-----5-----|
A|-5-----------------------------------|-7------7----7----7----7----7----|-7------2-----5-----|
E|-------------------------------------|-0------0----0----0----0----0----|-0------------3-----|

E|-------------------------|-------------------------------------|---------------|---------|
B|-------------------------|-------------------------------------|-0-------0-----|-0-------|
G|-7------7----7------7----|-7-----------------------------------|-0-------0-----|-0-------|
D|-7------7----7------7----|-7-----4----5----7----7----5----4----|-2-------2-----|-2-------|
A|-5------5----5------5----|-5-----------------------------------|-2-------2-----|-2-------|
E|-------------------------|-------------------------------------|-0-------0-----|-0-------|

E|---------|---------|---------|---------|---------|---------|---------|---------|-----------------------------|
B|---------|---------|---------|---------|---------|---------|---------|---------|-----------------------------|
G|-%-------|-%-------|-%-------|-%-------|-%-------|-%-------|-%-------|-9-------|-9-----9----11---12----11----|
D|-%-------|-%-------|-%-------|-%-------|-%-------|-%-------|-%-------|---------|-----------------------------|
A|---------|---------|---------|---------|---------|---------|---------|---------|-----------------------------|
E|---------|---------|---------|---------|---------|---------|---------|---------|-----------------------------|

E|--------------------|-------------------|---------|-----------------------------|
B|--------------------|-------------------|---------|-----------------------------|
G|-11-----12---12-----|-12------11---12---|-9-------|-9-----9----11---12----11----|
D|--------------------|-------------------|---------|-----------------------------|
A|--------------------|-------------------|---------|-----------------------------|
E|--------------------|-------------------|---------|-----------------------------|

E|--------------------|--------------------|---------|---------------------------------|
B|--------------------|--------------------|---------|---------------------------------|
G|-11-----12---12-----|-%------%-----4-----|-9-------|-9-----9----11---12----11---12---|
D|--------------------|-%------%-----------|---------|---------------------------------|
A|--------------------|--------------------|---------|---------------------------------|
E|--------------------|--------------------|---------|---------------------------------|

E|--------------------|-------------------|---------|-----------------------------|
B|--------------------|---------12--------|---------|-----------------------------|
G|-14-----12---12-----|-12-----------12---|-9-------|-9-----9----11---12----11----|
D|--------------------|-------------------|---------|-----------------------------|
A|--------------------|-------------------|---------|-----------------------------|
E|--------------------|-------------------|---------|-----------------------------|

E|--------------------|---------|---------|---------------------------------|--------------------|
B|--------------------|---------|---------|---------------------------------|--------------------|
G|-11-----12---9------|-9-------|-9-------|-9-----9----11---12----11---12---|-14-----------------|
D|--------------------|---------|---------|---------------------------------|--------17---17-----|
A|--------------------|---------|---------|---------------------------------|--------------------|
E|--------------------|---------|---------|---------------------------------|--------------------|

E|-------------------|---------|---------------------------------|---------------------------------|
B|---------12--------|---------|---------------------------------|---------------------------------|
G|--------------12---|-9-------|-9-----9----11---12----11---12---|-11----12---11---9-----7----9----|
D|-17----------------|---------|---------------------------------|---------------------------------|
A|-------------------|---------|---------------------------------|---------------------------------|
E|-------------------|---------|---------------------------------|---------------------------------|

E|---------------|-----------------------------------------|-----------------------------------------|
B|---------------|------12---12---12---10---12---12---12---|------12---12---12---10---12---12---12---|
G|-4-------4-----|-9---------------------------------------|-9---------------------------------------|
D|---------------|-----------------------------------------|-----------------------------------------|
A|---------------|-----------------------------------------|-----------------------------------------|
E|---------------|-----------------------------------------|-----------------------------------------|

E|-----------------------------------------|------10---------------------------------|
B|------12---12---12---10---12---12---12---|-13--------13---12---10------------------|
G|-9---------------------------------------|--------------------------12---11---12---|
D|-----------------------------------------|-----------------------------------------|
A|-----------------------------------------|-----------------------------------------|
E|-----------------------------------------|-----------------------------------------|

E|-----------------------------------------|-----------------------------------------|
B|------12---12---12---10---12---12---12---|------12---12---12---10---12---12---12---|
G|-9---------------------------------------|-9---------------------------------------|
D|-----------------------------------------|-----------------------------------------|
A|-----------------------------------------|-----------------------------------------|
E|-----------------------------------------|-----------------------------------------|

E|-----------------------------------------|------10---------------------------------|
B|------12---12---12---10---12---12---12---|-13--------13---12---10------------------|
G|-9---------------------------------------|--------------------------12---11---12---|
D|-----------------------------------------|-----------------------------------------|
A|-----------------------------------------|-----------------------------------------|
E|-----------------------------------------|-----------------------------------------|

E|---------|---------------------------------|--------------------|-------------------|
B|---------|---------------------------------|--------------------|-------------------|
G|-9-------|-9-----9----11---12----11---12---|-14-----12---12-----|-12------11---12---|
D|---------|---------------------------------|--------------------|-------------------|
A|---------|---------------------------------|--------------------|-------------------|
E|---------|---------------------------------|--------------------|-------------------|

E|---------|---------------------------------|--------------------|---------|------12---12---12---10------------------|
B|---------|---------------------------------|--------------------|---------|--------------------------13---12---13---|
G|-9-------|-9-----9----11---12----11---12---|-11-----12---9------|-9-------|-%---------------------------------------|
D|---------|---------------------------------|--------------------|---------|-%---------------------------------------|
A|---------|---------------------------------|--------------------|---------|-----------------------------------------|
E|---------|---------------------------------|--------------------|---------|-----------------------------------------|

E|---------|------12---12---12---10------------------|---------------------------------|
B|-12------|--------------------------13---12---13---|-12---10--------10---12----13----|
G|---------|-%---------------------------------------|-----------12--------------------|
D|---------|-%---------------------------------------|---------------------------------|
A|---------|-----------------------------------------|---------------------------------|
E|---------|-----------------------------------------|---------------------------------|

E|------12---12---12---10------------------|-----------------------------------------|
B|--------------------------13---12---13---|-12---10--------10---12---13---12---10---|
G|-%---------------------------------------|-----------12----------------------------|
D|-%---------------------------------------|-----------------------------------------|
A|-----------------------------------------|-----------------------------------------|
E|-----------------------------------------|-----------------------------------------|

E|---------------------------------|----------------------------|-----------------------------------------|
B|-12------------------------------|------10--------------------|------10---------------------------------|
G|-------9---------9-----9----11---|-12--------12---11---12-----|-12--------12---11---12---11---9---------|
D|------------12-------------------|----------------------------|------------------------------------12---|
A|---------------------------------|----------------------------|-----------------------------------------|
E|---------------------------------|----------------------------|-----------------------------------------|

E|---------|---------------------------------|--------------------|-------------------|
B|---------|---------------------------------|--------------------|---------12--------|
G|-9-------|-9-----9----11---12----11---12---|-14-----12---12-----|-12-----------12---|
D|---------|---------------------------------|--------------------|-------------------|
A|---------|---------------------------------|--------------------|-------------------|
E|---------|---------------------------------|--------------------|-------------------|

E|---------|---------------------------------|---------------------------------|-------------------------------------|
B|---------|---------------------------------|-------12---12---10----12---12---|------12---12---12---10----12---12---|
G|-9-------|-9-----9----11---12----11---12---|-9-------------------------------|-%-----------------------------------|
D|---------|---------------------------------|---------------------------------|-%-----------------------------------|
A|---------|---------------------------------|---------------------------------|-------------------------------------|
E|---------|---------------------------------|---------------------------------|-------------------------------------|

E|-----------------------------------------|-----------------------------------------|
B|------12---12---12---10---12---12---12---|------12---12---12---10---12---12---12---|
G|-9---------------------------------------|-9---------------------------------------|
D|-----------------------------------------|-----------------------------------------|
A|-----------------------------------------|-----------------------------------------|
E|-----------------------------------------|-----------------------------------------|

E|-----------------------------------------|------10---------------------------------|
B|------12---12---12---10---12---12---12---|-13--------13---12---10------------------|
G|-9---------------------------------------|--------------------------12---11---12---|
D|-----------------------------------------|-----------------------------------------|
A|-----------------------------------------|-----------------------------------------|
E|-----------------------------------------|-----------------------------------------|

E|-----------------------------------------|-----------------------------------------|
B|------12---12---12---10---12---12---12---|------12---12---12---10---12---12---12---|
G|-9---------------------------------------|-9---------------------------------------|
D|-----------------------------------------|-----------------------------------------|
A|-----------------------------------------|-----------------------------------------|
E|-----------------------------------------|-----------------------------------------|

E|-----------------------------------------|------10---------------------------------|
B|------12---12---12---10---12---12---12---|-13--------13---12---10------------------|
G|-9---------------------------------------|--------------------------12---11---12---|
D|-----------------------------------------|-----------------------------------------|
A|-----------------------------------------|-----------------------------------------|
E|-----------------------------------------|-----------------------------------------|

E|-------------------|-------------------------|-------------------|-------------------------|
B|-------------------|-------------------------|-------------------|-------------------------|
G|-4-------4---------|--------------------4----|-4-------4---------|--------7----7------4----|
D|-4-------4----4----|-4------7----7------4----|-4-------4----4----|-4------7----7------4----|
A|-2-------2----4----|-4------7----7------2----|-2-------2----4----|-4------5----5------2----|
E|--------------2----|-2------5----5-----------|--------------2----|-2-----------------------|

E|-------------------|-------------------------|-------------------|--------------------|
B|-------------------|-------------------------|-------------------|--------------------|
G|-4-------4---------|--------------------4----|-4-------4---------|--------7----7------|
D|-4-------4----4----|-4------7----7------4----|-4-------4----4----|-4------7----7------|
A|-2-------2----4----|-4------7----7------2----|-2-------2----4----|-4------5----5------|
E|--------------2----|-2------5----5-----------|--------------2----|-2------------------|

E|---------------------------------|--------------------|-------------------------|
B|---------------------------------|--------------------|-------------------------|
G|-9------9----9----9----9----9----|-9------4-----5-----|-7------7----7------7----|
D|-9------9----9----9----9----9----|-9------4-----5-----|-7------7----7------7----|
A|-7------7----7----7----7----7----|-7------2-----3-----|-5------5----5------5----|
E|-0------0----0----0----0----0----|-0------------------|-------------------------|

E|-------------------------------------|---------------------------------|--------------------|
B|-------------------------------------|---------------------------------|--------------------|
G|-7-----------------------------------|-9------9----9----9----9----9----|-9------4-----------|
D|-7-----4----5----7----7----5----4----|-9------9----9----9----9----9----|-9------4-----5-----|
A|-5-----------------------------------|-7------7----7----7----7----7----|-7------2-----5-----|
E|-------------------------------------|-0------0----0----0----0----0----|-0------------3-----|

E|-------------------------|-------------------------------------|--------------------------------------------------------|
B|-------------------------|-------------------------------------|--------------------------------------------------------|
G|-7------7----7------7----|-7-----------------------------------|-----------------9---10--9------------9------------9----|
D|-7------7----7------7----|-7-----4----5----7----7----5----4----|-----------------9---10--9------------9------------9----|
A|-5------5----5------5----|-5-----------------------------------|-----------------7---8---7------------7------------7----|
E|-------------------------|-------------------------------------|-0---0---0---0----------------0---0--------0---0--------|

E|--------------------------------------------------------|--------------------------------------------------------|
B|--------------------------------------------------------|--------------------------------------------------------|
G|-----------------9---10--9------------7------------7----|-----------------9---10--9------------9------------9----|
D|-----------------9---10--9------------7------------7----|-----------------9---10--9------------9------------9----|
A|-----------------7---8---7------------5------------5----|-----------------7---8---7------------7------------7----|
E|-0---0---0---0----------------0---0--------0---0--------|-0---0---0---0----------------0---0--------0---0--------|

E|--------------------------------------------------------|--------------------------------------------------------|
B|--------------------------------------------------------|--------------------------------------------------------|
G|-----------------9---10--9------------5-----------------|-----------------9---10--9------------9------------9----|
D|-----------------9---10--9------------5------------7----|-----------------9---10--9------------9------------9----|
A|-----------------7---8---7------------3------------7----|-----------------7---8---7------------7------------7----|
E|-0---0---0---0----------------0---0--------0---0---5----|-0---0---0---0----------------0---0--------0---0--------|

E|--------------------------------------------------------|--------------------------------------------------------|
B|--------------------------------------------------------|--------------------------------------------------------|
G|-----------------9---10--9------------7------------7----|-----------------9---10--9------------9------------9----|
D|-----------------9---10--9------------7------------7----|-----------------9---10--9------------9------------9----|
A|-----------------7---8---7------------5------------5----|-----------------7---8---7------------7------------7----|
E|-0---0---0---0----------------0---0--------0---0--------|-0---0---0---0----------------0---0--------0---0--------|

E|--------------------------------------------------------|---------|
B|--------------------------------------------------------|---------|
G|-----------------9---10--9------------5-----------------|-9-------|
D|-----------------9---10--9------------5------------7----|-9-------|
A|-----------------7---8---7------------3------------7----|-7-------|
E|-0---0---0---0----------------0---0--------0---0---5----|---------|
Iron Maiden - the nomad
Iron Maiden - the nomad.gp3