Iron Maiden - The Number Of the Beast

Iron Maiden



Title: The Number Of the Beast
Album: 
Artist: 
Author: Iron Maiden

Track 1: Guitar 1
E|------------------------------------------------|-----------------------------------------|
B|------------------------------------------------|-----------------------------------------|
G|-%------%---------------------------------------|-7--------------7--------------7---------|
D|-%------%-------------------4---------5---------|-7--------------7--------------7---------|
A|-------------5----5----5---------5---------5----|-5----5----5----5----5----5----5----5----|
E|------------------------------------------------|-----------------------------------------|

E|-------------------------------------------------------------|-----------------------------------------|
B|-------------------------------------------------------------|-----------------------------------------|
G|------7--------------7---------------------------------------|-7--------------7--------------7---------|
D|------7--------------7-------------------4---------5---------|-7--------------7--------------7---------|
A|-5----5----5----5----5----5----5----5---------5---------5----|-5----5----5----5----5----5----5----5----|
E|-------------------------------------------------------------|-----------------------------------------|

E|-------------------------------------------------------------|-----------------------------------------|
B|-------------------------------------------------------------|-----------------------------------------|
G|------7--------------7---------------------------------------|-7--------------7--------------7---------|
D|------7--------------7-------------------4---------5---------|-7--------------7--------------7---------|
A|-5----5----5----5----5----5----5----5---------5---------5----|-5----5----5----5----5----5----5----5----|
E|-------------------------------------------------------------|-----------------------------------------|

E|-------------------------------------------------------------|-----------------------------------------|
B|-------------------------------------------------------------|-----------------------------------------|
G|------7--------------7---------------------------------------|-5--------------5--------------5---------|
D|------7--------------7-------------------2---------3---------|-5--------------5--------------5---------|
A|-5----5----5----5----5----3----3----3---------3---------3----|-3----3----3----3----3----3----3----3----|
E|-------------------------------------------------------------|-----------------------------------------|

E|-------------------------------------------------------------|-----------------------------------------|
B|-------------------------------------------------------------|-----------------------------------------|
G|------5--------------5---------------------------------------|-7--------------7--------------7---------|
D|------5--------------5-------------------2---------3---------|-7--------------7--------------7---------|
A|-3----3----3----3----3----3----3----3---------3---------3----|-5----5----5----5----5----5----5----5----|
E|-------------------------------------------------------------|-----------------------------------------|

E|-------------------------------------------------------------|-----------------------------------------|
B|-------------------------------------------------------------|-----------------------------------------|
G|------7--------------7---------------------------------------|-7--------------7--------------7---------|
D|------7--------------7-------------------4---------5---------|-7--------------7--------------7---------|
A|-5----5----5----5----5----5----5----5---------5---------5----|-5----5----5----5----5----5----5----5----|
E|-------------------------------------------------------------|-----------------------------------------|

E|-------------------------------------------------------------|-----------------------------------------|
B|-------------------------------------------------------------|-----------------------------------------|
G|------7--------------7---------------------------------------|-7--------------7--------------7---------|
D|------7--------------7-------------------4---------5---------|-7--------------7--------------7---------|
A|-5----5----5----5----5----5----5----5---------5---------5----|-5----5----5----5----5----5----5----5----|
E|-------------------------------------------------------------|-----------------------------------------|

E|-------------------------------------------------------------|-----------------------------------------|
B|-------------------------------------------------------------|-----------------------------------------|
G|------7--------------7---------------------------------------|-5--------------5--------------5---------|
D|------7--------------7-------------------2---------3---------|-5--------------5--------------5---------|
A|-5----5----5----5----5----3----3----3---------3---------3----|-3----3----3----3----3----3----3----3----|
E|-------------------------------------------------------------|-----------------------------------------|

E|-------------------------------------------------------------|-----------------------------------------|
B|-------------------------------------------------------------|-----------------------------------------|
G|------5--------------5---------------------------------------|-7--------------7--------------7---------|
D|------5--------------5-------------------2---------3---------|-7--------------7--------------7---------|
A|-3----3----3----3----3----3----3----3---------3---------3----|-5----5----5----5----5----5----5----5----|
E|-------------------------------------------------------------|-----------------------------------------|

E|-------------------------------------------------------------|-----------------------------------------|
B|-------------------------------------------------------------|-----------------------------------------|
G|------7--------------7---------------------------------------|-7--------------7--------------7---------|
D|------7--------------7-------------------4---------5---------|-7--------------7--------------7---------|
A|-5----5----5----5----5----5----5----5---------5---------5----|-5----5----5----5----5----5----5----5----|
E|-------------------------------------------------------------|-----------------------------------------|

E|-------------------------------------------------------------|-----------------------------------------|
B|-------------------------------------------------------------|-----------------------------------------|
G|------7--------------7---------------------------------------|-7--------------7--------------7---------|
D|------7--------------7-------------------4---------5---------|-7--------------7--------------7---------|
A|-5----5----5----5----5----5----5----5---------5---------5----|-5----5----5----5----5----5----5----5----|
E|-------------------------------------------------------------|-----------------------------------------|

E|-------------------------------------------------------------|-----------------------------------------|
B|-------------------------------------------------------------|-----------------------------------------|
G|------7--------------7---------------------------------------|-5--------------5--------------5---------|
D|------7--------------7-------------------2---------3---------|-5--------------5--------------5---------|
A|-5----5----5----5----5----3----3----3---------3---------3----|-3----3----3----3----3----3----3----3----|
E|-------------------------------------------------------------|-----------------------------------------|

E|-------------------------------------------------------------|-----------------------------------------|
B|-------------------------------------------------------------|-----------------------------------------|
G|------5--------------5---------------------------------------|-7--------------7--------------7---------|
D|------5--------------5-------------------2---------3---------|-7--------------7--------------7---------|
A|-3----3----3----3----3----3----3----3---------3---------3----|-5----5----5----5----5----5----5----5----|
E|-------------------------------------------------------------|-----------------------------------------|

E|---------------------------------------------------------|---------|---------|---------------------------|
B|---------------------------------------------------------|---------|---------|---------------------------|
G|------7--------------7----7----7----7----7-----%----7----|-7-------|-7-------|-7----7----7----7----%-----|
D|------7--------------7----7----7----7----7-----%----7----|-7-------|-7-------|-7----7----7----7----%-----|
A|-5----5----5----5----5----5----5----5----5----------5----|-5-------|-5-------|-5----5----5----5----------|
E|---------------------------------------------------------|---------|---------|---------------------------|

E|---------|---------|---------------------------|---------|---------|---------------------------|
B|---------|---------|---------------------------|---------|---------|---------------------------|
G|-7-------|-7-------|-5----5----5----5----%-----|-5-------|-5-------|-7----7----7----7----%-----|
D|-7-------|-7-------|-5----5----5----5----%-----|-5-------|-5-------|-7----7----7----7----%-----|
A|-5-------|-5-------|-3----3----3----3----------|-3-------|-3-------|-5----5----5----5----------|
E|---------|---------|---------------------------|---------|---------|---------------------------|

E|---------------|---------|-----------------------------------------|-----------------------------------------|
B|---------------|---------|-----------------------------------------|-----------------------------------------|
G|-7-------7-----|-7-------|-7----7----7----7--------------7----7----|-7----7--------------7----7----7----7----|
D|-7-------7-----|-7-------|-7----7----7----7--------------7----7----|-7----7--------------7----7----7----7----|
A|-5-------5-----|-5-------|-5----5----5----5----5----5----5----5----|-5----5----5----5----5----5----5----5----|
E|---------------|---------|-----------------------------------------|-----------------------------------------|

E|-----------------------------------------|-----------------------------------------|
B|-----------------------------------------|-----------------------------------------|
G|-5---------7----7--------------7----7----|-7----7--------------7----7----7----7----|
D|-5----7----7----7--------------7----7----|-7----7--------------7----7----7----7----|
A|-5---------5----5----5----5----5----5----|-5----5----5----5----5----5----5----5----|
E|-----------------------------------------|-----------------------------------------|

E|-----------------------------------------|-----------------------------------------|
B|-----------------------------------------|-----------------------------------------|
G|-5---------7----7--------------7----7----|-7----7--------------7----7----7----7----|
D|-5----7----7----7--------------7----7----|-7----7--------------7----7----7----7----|
A|-5---------5----5----5----5----5----5----|-5----5----5----5----5----5----5----5----|
E|-----------------------------------------|-----------------------------------------|

E|-------------------------------------|-----------------------------------------|-----------------------------------------|
B|-------------------------------------|-----------------------------------------|-----------------------------------------|
G|-------------------------------------|-7----7----7----7----7----7----7----7----|-5---------7----7--------------7----7----|
D|-------------------------------------|-7----7----7----7----7----7----7----7----|-5----7----7----7--------------7----7----|
A|-2----3----3----3----3----2----------|-5----5----5----5----5----5----5----5----|-5---------5----5----5----5----5----5----|
E|-------------------------------3-----|-----------------------------------------|-----------------------------------------|

E|-----------------------------------------|-----------------------------------------|
B|-----------------------------------------|-----------------------------------------|
G|-7----7--------------7----7----7----7----|-5---------7----7--------------7----7----|
D|-7----7--------------7----7----7----7----|-5----7----7----7--------------7----7----|
A|-5----5----5----5----5----5----5----5----|-5---------5----5----5----5----5----5----|
E|-----------------------------------------|-----------------------------------------|

E|-----------------------------------------|-----------------------------------------|
B|-----------------------------------------|-----------------------------------------|
G|-7----7--------------7----7----7----7----|-5---------7----7--------------7----7----|
D|-7----7--------------7----7----7----7----|-5----7----7----7--------------7----7----|
A|-5----5----5----5----5----5----5----5----|-5---------5----5----5----5----5----5----|
E|-----------------------------------------|-----------------------------------------|

E|-----------------------------------------|-------------------------------------|-----------------------------------------|
B|-----------------------------------------|-------------------------------------|-----------------------------------------|
G|-7----7--------------7----7----7----7----|-------------------------------------|-7----7----7----7----7----7----7----5----|
D|-7----7--------------7----7----7----7----|-------------------------------------|-7----7----7----7----7----7----7----5----|
A|-5----5----5----5----5----5----5----5----|-2----3----3----3----3----2----------|-5----5----5----5----5----5----5----3----|
E|-----------------------------------------|-------------------------------3-----|-----------------------------------------|

E|-------------------------------------|----------------------------|-------------------------------------|
B|--------------------------------3----|-3--------------------------|-------------------------------------|
G|-5------------------------------0----|-0---------------------5----|-5------------------------------7----|
D|-5------------------------------0----|-0---------------------5----|-5------------------------------7----|
A|-3-----3----3----3----3----3----2----|-2------2----2----2----3----|-3-----3----3----3----3----3----5----|
E|-------------------------------------|----------------------------|-------------------------------------|

E|-----------------------------------------|-------------------------------------|----------------------------|
B|-----------------------------------------|--------------------------------3----|-3--------------------------|
G|-7----7----7----7----7----7----7----5----|-5------------------------------0----|-0---------------------5----|
D|-7----7----7----7----7----7----7----5----|-5------------------------------0----|-0---------------------5----|
A|-5----5----5----5----5----5----5----3----|-3-----3----3----3----3----3----2----|-2------2----2----2----3----|
E|-----------------------------------------|-------------------------------------|----------------------------|

E|-------------------|-----------------------------------------|-----------------------------------------|
B|-------------------|-----------------------------------------|-----------------------------------------|
G|-5-------5----5----|-7----7----7----7--------------7----7----|------7--------------7----7----7----7----|
D|-5-------5----5----|-7----7----7----7--------------7----7----|------7--------------7----7----7----7----|
A|-3-------3----3----|-5----5----5----5----5----5----5----5----|-5----5----5----5----5----5----5----5----|
E|-------------------|-----------------------------------------|-----------------------------------------|

E|-----------------------------------------|-----------------------------------------|
B|-----------------------------------------|-----------------------------------------|
G|-7----7----7----7--------------7----7----|-7----7--------------7----7----7----7----|
D|-7----7----7----7--------------7----7----|-7----7--------------7----7----7----7----|
A|-5----5----5----5----5----5----5----5----|-5----5----5----5----5----5----5----5----|
E|-----------------------------------------|-----------------------------------------|

E|-----------------------------------------|-----------------------------------------|
B|-----------------------------------------|-----------------------------------------|
G|-5---------7----7--------------7----7----|-7----7--------------7----7----7----7----|
D|-5----7----7----7--------------7----7----|-7----7--------------7----7----7----7----|
A|-5---------5----5----5----5----5----5----|-5----5----5----5----5----5----5----5----|
E|-----------------------------------------|-----------------------------------------|

E|-----------------------------------------|-----------------------------------------|
B|-----------------------------------------|-----------------------------------------|
G|-5---------7----7--------------7----7----|-7----7--------------7----7----7----7----|
D|-5----7----7----7--------------7----7----|-7----7--------------7----7----7----7----|
A|-5---------5----5----5----5----5----5----|-5----5----5----5----5----5----5----5----|
E|-----------------------------------------|-----------------------------------------|

E|-------------------------------------|-----------------------------------------|-----------------------------------------|
B|-------------------------------------|-----------------------------------------|-----------------------------------------|
G|-------------------------------------|-7----7----7----7----7----7----7----7----|-5---------7----7--------------7----7----|
D|-------------------------------------|-7----7----7----7----7----7----7----7----|-5----7----7----7--------------7----7----|
A|-2----3----3----3----3----2----------|-5----5----5----5----5----5----5----5----|-5---------5----5----5----5----5----5----|
E|-------------------------------3-----|-----------------------------------------|-----------------------------------------|

E|-----------------------------------------|-----------------------------------------|
B|-----------------------------------------|-----------------------------------------|
G|-7----7--------------7----7----7----7----|-5---------7----7--------------7----7----|
D|-7----7--------------7----7----7----7----|-5----7----7----7--------------7----7----|
A|-5----5----5----5----5----5----5----5----|-5---------5----5----5----5----5----5----|
E|-----------------------------------------|-----------------------------------------|

E|-----------------------------------------|-----------------------------------------|
B|-----------------------------------------|-----------------------------------------|
G|-7----7--------------7----7----7----7----|-5---------7----7--------------7----7----|
D|-7----7--------------7----7----7----7----|-5----7----7----7--------------7----7----|
A|-5----5----5----5----5----5----5----5----|-5---------5----5----5----5----5----5----|
E|-----------------------------------------|-----------------------------------------|

E|-----------------------------------------|-------------------------------------|-----------------------------------------|
B|-----------------------------------------|-------------------------------------|-----------------------------------------|
G|-7----7--------------7----7----7----7----|-------------------------------------|-7----7----7----7----7----7----7----5----|
D|-7----7--------------7----7----7----7----|-------------------------------------|-7----7----7----7----7----7----7----5----|
A|-5----5----5----5----5----5----5----5----|-2----3----3----3----3----2----------|-5----5----5----5----5----5----5----3----|
E|-----------------------------------------|-------------------------------3-----|-----------------------------------------|

E|-------------------|-------------------|-------------------|-----------------------------------------|
B|--------------3----|-3-------3---------|-------------------|-----------------------------------------|
G|-5-------5----0----|-0-------0----5----|-5-------5----7----|-7----7----7----7----7----7----7----5----|
D|-5-------5----0----|-0-------0----5----|-5-------5----7----|-7----7----7----7----7----7----7----5----|
A|-3-------3----2----|-2-------2----3----|-3-------3----5----|-5----5----5----5----5----5----5----3----|
E|-------------------|-------------------|-------------------|-----------------------------------------|

E|-------------------|-------------------|-------------------|-----------------------------------------|
B|--------------3----|-3-------3---------|--------------3----|-3----3----3----5---------3--------------|
G|-5-------5----0----|-0-------0----5----|-5-------5----2----|-2----2----2----4---------2--------------|
D|-5-------5----0----|-0-------0----5----|-5-------5----0----|-0----0----0----0----0----0----0----0----|
A|-3-------3----2----|-2-------2----3----|-3-------3---------|-----------------------------------------|
E|-------------------|-------------------|-------------------|-----------------------------------------|

E|-----------------------------------------|-----------------------------------------|
B|-5----5----5----6---------5--------------|-6----6----6----8---------6----6----8----|
G|-4----4----4----5---------4--------------|-5----5----5----7---------5----5----7----|
D|-0----0----0----0----0----0----0----0----|-0----0----0----0----0----0----0----0----|
A|-----------------------------------------|-----------------------------------------|
E|-----------------------------------------|-----------------------------------------|

E|---------------------------------|-----------------------------------------|-----------------------------------------|
B|-8----8----8----8----8----6------|-3----3----3----5---------3--------------|-5----5----5----6---------5--------------|
G|-7----7----7----7----7----5------|-2----2----2----4---------2--------------|-4----4----4----5---------4--------------|
D|-0----0----0----0----0----0------|-0----0----0----0----0----0----0----0----|-0----0----0----0----0----0----0----0----|
A|---------------------------------|-----------------------------------------|-----------------------------------------|
E|---------------------------------|-----------------------------------------|-----------------------------------------|

E|-----------------------------------------|---------------------------------|-----------------------------------------|
B|-6----6----6----8---------6----6----8----|-8----8----8----8----8----6------|-3----3----3----5---------3--------------|
G|-5----5----5----7---------5----5----7----|-7----7----7----7----7----5------|-2----2----2----4---------2--------------|
D|-0----0----0----0----0----0----0----0----|-0----0----0----0----0----0------|-0----0----0----0----0----0----0----0----|
A|-----------------------------------------|---------------------------------|-----------------------------------------|
E|-----------------------------------------|---------------------------------|-----------------------------------------|

E|-----------------------------------------|-----------------------------------------|
B|-5----5----5----6---------5--------------|-6----6----6----8---------6----6----8----|
G|-4----4----4----5---------4--------------|-5----5----5----7---------5----5----7----|
D|-0----0----0----0----0----0----0----0----|-0----0----0----0----0----0----0----0----|
A|-----------------------------------------|-----------------------------------------|
E|-----------------------------------------|-----------------------------------------|

E|---------------------------------|------------------------|-----------------------------------------|
B|-8----8----8----8----8----6------|------------------------|-----------------------------------------|
G|-7----7----7----7----7----5------|-%------%-----%----3----|-3----3----3----3----3----3----3----3----|
D|-0----0----0----0----0----0------|-%------%-----%----3----|-3----3----3----3----3----3----3----3----|
A|---------------------------------|-------------------1----|-1----1----1----1----1----1----1----1----|
E|---------------------------------|------------------------|-----------------------------------------|

E|-----------------------------------------|-----------------------------------------|
B|-----------------------------------------|-----------------------------------------|
G|-3----3----3----3----3----3----3---------|-----------------------------------------|
D|-3----3----3----3----3----3----3----3----|-3----3----3----3----3----3----3----3----|
A|-1----1----1----1----1----1----1----3----|-3----3----3----3----3----3----3----3----|
E|------------------------------------1----|-1----1----1----1----1----1----1----1----|

E|-----------------------------------------|-----------------------------------------|
B|-----------------------------------------|-----------------------------------------|
G|------------------------------------3----|-3----3----3----3----3----3----3----3----|
D|-3----3----3----3----3----3----3----3----|-3----3----3----3----3----3----3----3----|
A|-3----3----3----3----3----3----3----1----|-1----1----1----1----1----1----1----1----|
E|-1----1----1----1----1----1----1---------|-----------------------------------------|

E|-----------------------------------------|-----------------------------------------|
B|-----------------------------------------|-----------------------------------------|
G|-3----3----3----3----3----3----3---------|-----------------------------------------|
D|-3----3----3----3----3----3----3----3----|-3----3----3----3----3----3----3----3----|
A|-1----1----1----1----1----1----1----3----|-3----3----3----3----3----3----3----3----|
E|------------------------------------1----|-1----1----1----1----1----1----1----1----|

E|-----------------------------------------|-----------------------------------------|
B|-----------------------------------------|-----------------------------------------|
G|------------------------------------3----|-3----3----3----3----3----3----3----3----|
D|-3----3----3----3----3----3----3----3----|-3----3----3----3----3----3----3----3----|
A|-3----3----3----3----3----3----3----1----|-1----1----1----1----1----1----1----1----|
E|-1----1----1----1----1----1----1---------|-----------------------------------------|

E|-----------------------------------------|-----------------------------------------|
B|-----------------------------------------|-----------------------------------------|
G|-3----3----3----3----3----3----3---------|-----------------------------------------|
D|-3----3----3----3----3----3----3----3----|-3----3----3----3----3----3----3----3----|
A|-1----1----1----1----1----1----1----3----|-3----3----3----3----3----3----3----3----|
E|------------------------------------1----|-1----1----1----1----1----1----1----1----|

E|-----------------------------------------|-----------------------------------------|
B|-----------------------------------------|-----------------------------------------|
G|------------------------------------3----|-3----3----3----3----3----3----3----3----|
D|-3----3----3----3----3----3----3----3----|-3----3----3----3----3----3----3----3----|
A|-3----3----3----3----3----3----3----1----|-1----1----1----1----1----1----1----1----|
E|-1----1----1----1----1----1----1---------|-----------------------------------------|

E|-----------------------------------------|-----------------------------------------|
B|-----------------------------------------|-----------------------------------------|
G|-3----3----3----3----3----3----3---------|-----------------------------------------|
D|-3----3----3----3----3----3----3----3----|-3----3----3----3----3----3----3----3----|
A|-1----1----1----1----1----1----1----3----|-3----3----3----3----3----3----3----3----|
E|------------------------------------1----|-1----1----1----1----1----1----1----1----|

E|-------------------------------------|-----------------------------------------|-----------------------------------------|
B|-------------------------------------|-----------------------------------------|-----------------------------------------|
G|-----------------7----7----7----5----|-%---------7---------5-------------------|---------------------5----5----5----3----|
D|-3----3----3-----7----7----7----5----|-%----7---------7---------7----5---------|-5-------------------5----5----5----3----|
A|-3----3----3-----5----5----5----3----|------------------------------------7----|------7----6----5----3----3----3----1----|
E|-1----1----1-------------------------|-----------------------------------------|-----------------------------------------|

E|-----------------------------------------|-----------------------------------------|
B|-----------------------------------------|-----------------------------------------|
G|-%---------3---------1-------------------|-----------------------------------------|
D|-%----3---------3---------3----1---------|-1-------------------5----5----5----3----|
A|------------------------------------3----|------3----2----1----5----5----5----3----|
E|-----------------------------------------|---------------------3----3----3----1----|

E|----------------------------|-----------------------------------------|----------------------------|
B|----------------------------|-----------------------------------------|----------------------------|
G|----------------------------|-----------------------------------------|-----------------------2----|
D|-3------3----3----3----3----|-3----3----3----3----3----3----3----5----|-5------5----5----5----2----|
A|-3------3----3----3----3----|-3----3----3----3----3----3----3----5----|-5------5----5----5----0----|
E|-1------1----1----1----1----|-1----1----1----1----1----1----1----3----|-3------3----3----3---------|

E|-----------------------------------------|-------------------|-------------------|
B|-----------------------------------------|-------------------|-------------------|
G|-2----2----2----5----5----5----5----7----|-7-------7---------|-------------------|
D|-2----2----2----5----5----5----5----7----|-7-------7----3----|-3-------3----5----|
A|-0----0----0----3----3----3----3----5----|-5-------5----3----|-3-------3----5----|
E|-----------------------------------------|--------------1----|-1-------1----3----|

E|-------------------|--------------------|-------------------|-------------------|
B|-------------------|--------------------|-------------------|-------------------|
G|--------------3----|-3------5------7----|-7-------7---------|-------------------|
D|-5-------5----3----|-3------5------7----|-7-------7----3----|-3-------3----5----|
A|-5-------5----1----|-1------3------5----|-5-------5----3----|-3-------3----5----|
E|-3-------3---------|--------------------|--------------1----|-1-------1----3----|

E|-------------------|--------------------|-------------------|-------------------|
B|-------------------|--------------------|-------------------|-------------------|
G|--------------3----|-3------5------7----|-7-------7---------|-------------------|
D|-5-------5----3----|-3------5------7----|-7-------7----3----|-3-------3----5----|
A|-5-------5----1----|-1------3------5----|-5-------5----3----|-3-------3----5----|
E|-3-------3---------|--------------------|--------------1----|-1-------1----3----|

E|-------------------|--------------------|-------------------|-------------------|
B|-------------------|--------------------|-------------------|-------------------|
G|--------------3----|-3------5------7----|-7-------7---------|-------------------|
D|-5-------5----3----|-3------5------7----|-7-------7----3----|-3-------3----5----|
A|-5-------5----1----|-1------3------5----|-5-------5----3----|-3-------3----5----|
E|-3-------3---------|--------------------|--------------1----|-1-------1----3----|

E|-------------------|--------------------|-------------------|-------------------|
B|-------------------|--------------------|-------------------|-------------------|
G|--------------3----|-3------5------7----|-7-------7---------|-------------------|
D|-5-------5----3----|-3------5------7----|-7-------7----3----|-3-------3----5----|
A|-5-------5----1----|-1------3------5----|-5-------5----3----|-3-------3----5----|
E|-3-------3---------|--------------------|--------------1----|-1-------1----3----|

E|-------------------|--------------------|-------------------|-------------------|
B|-------------------|--------------------|-------------------|-------------------|
G|--------------3----|-3------5------7----|-7-------7---------|-------------------|
D|-5-------5----3----|-3------5------7----|-7-------7----3----|-3-------3----5----|
A|-5-------5----1----|-1------3------5----|-5-------5----3----|-3-------3----5----|
E|-3-------3---------|--------------------|--------------1----|-1-------1----3----|

E|-------------------|--------------------|-----------------------------------------|
B|-------------------|--------------------|-----------------------------------------|
G|--------------3----|-3------5------7----|-7----7----7----7--------------7----7----|
D|-5-------5----3----|-3------5------7----|-7----7----7----7--------------7----7----|
A|-5-------5----1----|-1------3------5----|-5----5----5----5----5----5----5----5----|
E|-3-------3---------|--------------------|-----------------------------------------|

E|-----------------------------------------|-----------------------------------------|
B|-----------------------------------------|-----------------------------------------|
G|------7--------------7----7----7----7----|-7----7----7----7--------------7----7----|
D|------7--------------7----7----7----7----|-7----7----7----7--------------7----7----|
A|-5----5----5----5----5----5----5----5----|-5----5----5----5----5----5----5----5----|
E|-----------------------------------------|-----------------------------------------|

E|-----------------------------------------|-----------------------------------------|
B|-----------------------------------------|-----------------------------------------|
G|-7----7--------------7----7----7----7----|-5---------7----7--------------7----7----|
D|-7----7--------------7----7----7----7----|-5----7----7----7--------------7----7----|
A|-5----5----5----5----5----5----5----5----|-5---------5----5----5----5----5----5----|
E|-----------------------------------------|-----------------------------------------|

E|-----------------------------------------|-----------------------------------------|
B|-----------------------------------------|-----------------------------------------|
G|-7----7--------------7----7----7----7----|-5---------7----7--------------7----7----|
D|-7----7--------------7----7----7----7----|-5----7----7----7--------------7----7----|
A|-5----5----5----5----5----5----5----5----|-5---------5----5----5----5----5----5----|
E|-----------------------------------------|-----------------------------------------|

E|-----------------------------------------|-------------------------------------|-----------------------------------------|
B|-----------------------------------------|-------------------------------------|-----------------------------------------|
G|-7----7--------------7----7----7----7----|-------------------------------------|-7----7----7----7----7----7----7----7----|
D|-7----7--------------7----7----7----7----|-------------------------------------|-7----7----7----7----7----7----7----7----|
A|-5----5----5----5----5----5----5----5----|-2----3----3----3----3----2----------|-5----5----5----5----5----5----5----5----|
E|-----------------------------------------|-------------------------------3-----|-----------------------------------------|

E|-----------------------------------------|-----------------------------------------|
B|-----------------------------------------|-----------------------------------------|
G|-5---------7----7--------------7----7----|-7----7--------------7----7----7----7----|
D|-5----7----7----7--------------7----7----|-7----7--------------7----7----7----7----|
A|-5---------5----5----5----5----5----5----|-5----5----5----5----5----5----5----5----|
E|-----------------------------------------|-----------------------------------------|

E|-----------------------------------------|-----------------------------------------|
B|-----------------------------------------|-----------------------------------------|
G|-5---------7----7--------------7----7----|-7----7--------------7----7----7----7----|
D|-5----7----7----7--------------7----7----|-7----7--------------7----7----7----7----|
A|-5---------5----5----5----5----5----5----|-5----5----5----5----5----5----5----5----|
E|-----------------------------------------|-----------------------------------------|

E|-----------------------------------------|-----------------------------------------|
B|-----------------------------------------|-----------------------------------------|
G|-5---------7----7--------------7----7----|-7----7--------------7----7----7----7----|
D|-5----7----7----7--------------7----7----|-7----7--------------7----7----7----7----|
A|-5---------5----5----5----5----5----5----|-5----5----5----5----5----5----5----5----|
E|-----------------------------------------|-----------------------------------------|

E|-------------------------------------|-----------------------------------------|-------------------|
B|-------------------------------------|-----------------------------------------|--------------3----|
G|-------------------------------------|-7----7----7----7----7----7----7----5----|-5-------5----0----|
D|-------------------------------------|-7----7----7----7----7----7----7----5----|-5-------5----0----|
A|-2----3----3----3----3----2----------|-5----5----5----5----5----5----5----3----|-3-------3----2----|
E|-------------------------------3-----|-----------------------------------------|-------------------|

E|-------------------|-------------------|-----------------------------------------|
B|-3-------3---------|-------------------|-----------------------------------------|
G|-0-------0----5----|-5-------5----7----|-7----7----7----7----7----7----7----5----|
D|-0-------0----5----|-5-------5----7----|-7----7----7----7----7----7----7----5----|
A|-2-------2----3----|-3-------3----5----|-5----5----5----5----5----5----5----3----|
E|-------------------|-------------------|-----------------------------------------|

E|-------------------|-------------------|------------------------------------------------|
B|--------------3----|-3-------3---------|------------------------------------------------|
G|-5-------5----0----|-0-------0----5----|-5------5---------------------------------------|
D|-5-------5----0----|-0-------0----5----|-5------5-------------------4---------5---------|
A|-3-------3----2----|-2-------2----3----|-3------3----5----5----5---------5---------5----|
E|-------------------|-------------------|------------------------------------------------|

E|-----------------------------------------|-------------------------------------------------------------|
B|-----------------------------------------|-------------------------------------------------------------|
G|-7--------------7--------------7---------|------7--------------7---------------------------------------|
D|-7--------------7--------------7---------|------7--------------7-------------------4---------5---------|
A|-5----5----5----5----5----5----5----5----|-5----5----5----5----5----5----5----5---------5---------5----|
E|-----------------------------------------|-------------------------------------------------------------|

E|-----------------------------------------|-------------------------------------------------------------|
B|-----------------------------------------|-------------------------------------------------------------|
G|-7--------------7--------------7---------|------7--------------7---------------------------------------|
D|-7--------------7--------------7---------|------7--------------7-------------------4---------5---------|
A|-5----5----5----5----5----5----5----5----|-5----5----5----5----5----5----5----5---------5---------5----|
E|-----------------------------------------|-------------------------------------------------------------|

E|-----------------------------------------|-------------------------------------------------------------|
B|-----------------------------------------|-------------------------------------------------------------|
G|-7--------------7--------------7---------|------7--------------7---------------------------------------|
D|-7--------------7--------------7---------|------7--------------7-------------------2---------3---------|
A|-5----5----5----5----5----5----5----5----|-5----5----5----5----5----3----3----3---------3---------3----|
E|-----------------------------------------|-------------------------------------------------------------|

E|-----------------------------------------|-------------------------------------------------------------|
B|-----------------------------------------|-------------------------------------------------------------|
G|-5--------------5--------------5---------|------5--------------5---------------------------------------|
D|-5--------------5--------------5---------|------5--------------5-------------------2---------3---------|
A|-3----3----3----3----3----3----3----3----|-3----3----3----3----3----3----3----3---------3---------3----|
E|-----------------------------------------|-------------------------------------------------------------|

E|-----------------------------------------|-------------------------------------------------------------|
B|-----------------------------------------|-------------------------------------------------------------|
G|-7--------------7--------------7---------|------7--------------7---------------------------------------|
D|-7--------------7--------------7---------|------7--------------7-------------------4---------5---------|
A|-5----5----5----5----5----5----5----5----|-5----5----5----5----5----5----5----5---------5---------5----|
E|-----------------------------------------|-------------------------------------------------------------|

E|-----------------------------------------|-------------------------------------------------------------|
B|-----------------------------------------|-------------------------------------------------------------|
G|-7--------------7--------------7---------|------7--------------7---------------------------------------|
D|-7--------------7--------------7---------|------7--------------7-------------------4---------5---------|
A|-5----5----5----5----5----5----5----5----|-5----5----5----5----5----5----5----5---------5---------5----|
E|-----------------------------------------|-------------------------------------------------------------|

E|-----------------------------------------|-------------------------------------------------------------|
B|-----------------------------------------|-------------------------------------------------------------|
G|-7--------------7--------------7---------|------7--------------7---------------------------------------|
D|-7--------------7--------------7---------|------7--------------7-------------------2---------3---------|
A|-5----5----5----5----5----5----5----5----|-5----5----5----5----5----3----3----3---------3---------3----|
E|-----------------------------------------|-------------------------------------------------------------|

E|-----------------------------------------|-------------------------------------------------------------|
B|-----------------------------------------|-------------------------------------------------------------|
G|-5--------------5--------------5---------|------5--------------5---------------------------------------|
D|-5--------------5--------------5---------|------5--------------5-------------------2---------3---------|
A|-3----3----3----3----3----3----3----3----|-3----3----3----3----3----3----3----3---------3---------3----|
E|-----------------------------------------|-------------------------------------------------------------|

E|-----------------------------------------|--------2----2----2----2----2----------3----|
B|-----------------------------------------|--------3----3----3----3----3----------3----|
G|-7--------------7--------------7---------|-%------2----2----2----2----2-----%----2----|
D|-7--------------7--------------7---------|-%------0----0----0----0----0-----%----0----|
A|-5----5----5----5----5----5----5----5----|--------------------------------------------|
E|-----------------------------------------|--------------------------------------------|

E|-3-------|-3-------|-2----2----2----2----------|-2-------|-2-------|---------------------------|
B|-3-------|-3-------|-3----3----3----3----------|-3-------|-3-------|-3----3----3----3----------|
G|-2-------|-2-------|-2----2----2----2----%-----|-2-------|-2-------|-2----2----2----2----%-----|
D|-0-------|-0-------|-0----0----0----0----%-----|-0-------|-0-------|-0----0----0----0----%-----|
A|---------|---------|---------------------------|---------|---------|-3----3----3----3----------|
E|---------|---------|---------------------------|---------|---------|---------------------------|

E|---------|---------|---------------------------|-----------------------------|
B|-3-------|-3-------|---------------------------|-----------------------------|
G|-2-------|-2-------|-7----7----7----7----%-----|-7-----5----7----7-----%-----|
D|-0-------|-0-------|-7----7----7----7----%-----|-7-----5----7----7-----%-----|
A|-3-------|-3-------|-5----5----5----5----------|-5-----3----5----5-----------|
E|---------|---------|---------------------------|-----------------------------|
Iron Maiden - The Number Of the Beast
Iron Maiden - The Number Of the Beast.gp3