Iron Maiden - The Number Of The Beast (2)

Iron Maiden



Title: The Number Of The Beast
Album: 
Artist: Iron Maiden
Author: 

Track 1: Baixo
G|------------------------------------------------|-----------------------------------------|
D|-%------%-------------------4---------5---------|-7--------------7--------------7---------|
A|-%------%----5----5----5---------5---------5----|------5----5---------5----5---------5----|
E|------------------------------------------------|-----------------------------------------|

G|-------------------------------------------------------------|-----------------------------------------|
D|------7--------------7-------------------4---------5---------|-7--------------7--------------7---------|
A|-5---------5----5---------5----5----5---------5---------5----|------5----5---------5----5---------5----|
E|-------------------------------------------------------------|-----------------------------------------|

G|-------------------------------------------------------------|-----------------------------------------|
D|------7--------------7-------------------7---------5---------|-7--------------7--------------7---------|
A|-5---------5----5---------5----5----5---------5---------5----|------5----5---------5----5---------5----|
E|-------------------------------------------------------------|-----------------------------------------|

G|-------------------------------------------------------------|-----------------------------------------|
D|------7--------------7-------------------2---------3---------|-5--------------5--------------5---------|
A|-5---------5----5---------3----3----3---------3---------3----|------3----3---------3----3---------3----|
E|-------------------------------------------------------------|-----------------------------------------|

G|-------------------------------------------------------------|-----------------------------------------|
D|------5--------------5-------------------2---------5---------|-7--------------7--------------7---------|
A|-3---------3----3---------3----3----3---------3---------3----|------5----5---------5----5---------5----|
E|-------------------------------------------------------------|-----------------------------------------|

G|-------------------------------------------------------------|---------------------------------------------------------|
D|------7--------------7-------------------4---------5---------|------7----------------------------------------%---------|
A|-5---------5----5---------5----5----5---------5---------5----|-5---------5----5----5----5----5----5----5-----%----5----|
E|-------------------------------------------------------------|---------------------------------------------------------|

G|---------|---------------|---------------------------|---------|---------------|---------------------------|
D|---------|---------------|-----------------%---------|---------|---------------|-----------------%---------|
A|-5-------|-5-------5-----|-5----5----5-----%----5----|-5-------|-5-------3-----|-3----3----3-----%----3----|
E|---------|---------------|---------------------------|---------|---------------|---------------------------|

G|---------|---------------|---------------------------|---------------|---------|-----------------------------------------|
D|---------|---------------|-----------------%---------|---------------|---------|-----------------------------------------|
A|-3-------|-3-------5-----|-5----5----5-----%----5----|-5-------5-----|-5-------|-5----5----5----5----5----5----5----5----|
E|---------|---------------|---------------------------|---------------|---------|-----------------------------------------|

G|-----------------------------------------|-----------------------------------------|
D|-----------------------------------------|-----------------------------------------|
A|-5----5----5----5----5----5----5----5----|-5----5----5----5----5----5----5----5----|
E|-----------------------------------------|-----------------------------------------|

G|-----------------------------------------|-----------------------------------------|
D|-----------------------------------------|-----------------------------------------|
A|-5----5----5----5----5----5----5----5----|-5----5----5----5----5----5----5----5----|
E|-----------------------------------------|-----------------------------------------|

G|-----------------------------------------|-------------------------------------|-----------------------------------------|
D|-----------------------------------------|-------------------------------------|-----------------------------------------|
A|-5----5----5----5----5----5----5----5----|-2----3----3----3----3----2----------|-5----5----5----5----5----5----5----5----|
E|-----------------------------------------|-------------------------------3-----|-----------------------------------------|

G|-----------------------------------------|-----------------------------------------|
D|-----------------------------------------|-----------------------------------------|
A|-5----5----5----5----5----5----5----3----|-3----3----3----3----3----3----3----2----|
E|-----------------------------------------|-----------------------------------------|

G|-----------------------------------------|-----------------------------------------|
D|-----------------------------------------|-----------------------------------------|
A|-2----2----2----2----2----2----2----3----|-3----3----3----3----3----3----3----5----|
E|-----------------------------------------|-----------------------------------------|

G|---------------------7-------------------|-----------------------------------------|
D|-----------4----7---------7----4---------|-----------------------------------------|
A|-5----5-----------------------------3----|-3----3----3----3----3----3----3----2----|
E|-----------------------------------------|-----------------------------------------|

G|-----------------------------------------|-------------------------------------|-----------------------------------------|
D|-----------------------------------------|-------------------------------------|-----------------------------------------|
A|-2----2----2----2----2----2----2----3----|-3----3----3----3----3----3----3-----|-5----5----5----5----5----5----5----5----|
E|-----------------------------------------|-------------------------------------|-----------------------------------------|

G|-----------------------------------------|-----------------------------------------|
D|-----------------------------------------|-----------------------------------------|
A|-5----5----5----5----5----5----5----5----|-5----5----5----5----5----5----5----5----|
E|-----------------------------------------|-----------------------------------------|

G|-----------------------------------------|-----------------------------------------|
D|-----------------------------------------|-----------------------------------------|
A|-5----5----5----5----5----5----5----5----|-5----5----5----5----5----5----5----5----|
E|-----------------------------------------|-----------------------------------------|

G|-----------------------------------------|-----------------------------------------|
D|-----------------------------------------|-----------------------------------------|
A|-5----5----5----5----5----5----5----5----|-5----5----5----5----5----5----5----5----|
E|-----------------------------------------|-----------------------------------------|

G|-----------------------------------------|-------------------------------------|-----------------------------------------|
D|-----------------------------------------|-------------------------------------|-----------------------------------------|
A|-5----5----5----5----5----5----5----5----|-2----3----3----3----3----2----------|-5----5----5----5----5----5----5----5----|
E|-----------------------------------------|-------------------------------3-----|-----------------------------------------|

G|-----------------------------------------|-----------------------------------------|
D|-----------------------------------------|-----------------------------------------|
A|-5----5----5----5----5----5----5----3----|-3----3----3----3----3----3----3----2----|
E|-----------------------------------------|-----------------------------------------|

G|-----------------------------------------|-----------------------------------------|
D|-----------------------------------------|-----------------------------------------|
A|-2----2----2----2----2----2----2----3----|-3----3----3----3----3----3----3----5----|
E|-----------------------------------------|-----------------------------------------|

G|-----------------7-------------------|-----------------------------------------|-----------------------------------------|
D|-------4----7---------7----4---------|-----------------------------------------|-----------------------------------------|
A|-5------------------------------3----|-3----3----3----3----3----3----3----2----|-2----2----2----2----2----2----2----3----|
E|-------------------------------------|-----------------------------------------|-----------------------------------------|

G|-------------------------------------|-------------------------------------|-------------------------------------|
D|-------------------------------------|-----------7--------------7----------|-----------9--------------9----------|
A|-3----3----3----3----3----3----3-----|-5----5---------5----5---------5-----|-7----7---------7----7---------7-----|
E|-------------------------------------|-------------------------------------|-------------------------------------|

G|-------------------------------------|----------------------------|---------------------------------|
D|-----------10-------------10---------|-10-------------10---10-----|-10-------------10---10----------|
A|-8----8---------8----8---------8-----|------8----8----------------|------8----8---------------1-----|
E|-------------------------------------|----------------------------|---------------------------------|

G|-------------------------------------|-----------------------------------------|-----------------------------------------|
D|-------------------------------------|-----------------------------------------|-----------------------------------------|
A|-1-----1----1----1----1----1----1----|-1----1----1----1----1----1----1---------|-----------------------------------------|
E|-------------------------------------|------------------------------------1----|-1----1----1----1----1----1----1----1----|

G|-----------------------------------------|-----------------------------------------|
D|-----------------------------------------|-----------------------------------------|
A|------------------------------------1----|-1----1----1----1----1----1----1----1----|
E|-1----1----1----1----1----1----1---------|-----------------------------------------|

G|-----------------------------------------|-----------------------------------------|
D|-----------------------------------------|-----------------------------------------|
A|-1----1----1----1----1----1----1---------|-----------------------------------------|
E|------------------------------------1----|-1----1----1----1----1----1----1----1----|

G|-----------------------------------------|-----------------------------------------|
D|-----------------------------------------|-----------------------------------------|
A|------------------------------------1----|---------------------5----5----5----3----|
E|-1----1----1----1----1----1----1---------|-1----1----1----1------------------------|

G|-----------7---------5-------------------|-----------------------------------------|
D|-%----7---------7---------7----5---------|-5---------------------------------------|
A|-%----------------------------------7----|------7----6----5------------------------|
E|-----------------------------------------|---------------------8----8----8----6----|

G|-----------------------------------------|-----------------------------------------|
D|-%---------8---------6-------------------|-----------------------------------------|
A|-%----8---------8---------8----6---------|-6---------------------------------------|
E|------------------------------------8----|------8----7----6----3----3----3----1----|

G|-----------------------------------------|-----------------------------------------|
D|-----------------------------------------|-----------------------------------------|
A|-----------------------------------------|-----------------------------------------|
E|-1----1----1----1----1----1----1----1----|-1----1----1----1----1----1----1----3----|

G|-----------------------------------------|-----------------------------------------|
D|-----------------------------------------|-----------------------------------------|
A|-----------------------------------------|-----------------------------------------|
E|-3----3----3----3----3----3----3----5----|-5----5----5----5----5----5----5----10---|

G|-----------------------------------------|-----------------------------------------|
D|---------------------12------------------|-----------7---------8----7--------------|
A|-----------9----12--------12---9----8----|-8----8---------8--------------8----10---|
E|-10---10---------------------------------|-----------------------------------------|

G|-----------------------------------------|------10---10----------------------------|
D|-7---------9---------10---9----9----8----|-8--------------10---10---12---12--------|
A|-10---10--------10-----------------------|-----------------------------------------|
E|-----------------------------------------|------------------------------------10---|

G|-----------------------------------------|-----------------------------------------|
D|---------------------10------------------|-----------7----7----8----7----7---------|
A|-----------9----12--------12---9---------|------8-----------------------------10---|
E|-10---10----------------------------13---|-13--------------------------------------|

G|-----------------------------------------|------10---10-------------12---12--------|
D|-----------9---------10---9----9----8----|-8--------------10---10------------------|
A|-10---10--------10-----------------------|-----------------------------------------|
E|-----------------------------------------|------------------------------------10---|

G|-----------------------------------------|-------------------------------------|------------------------|
D|---------------------12------------------|-----------7---------8----7----%-----|-%-----10-----%----8----|
A|-----------9----12--------12---12---8----|-8----8---------8--------------%-----|-%-----10-----%---------|
E|-10---10---------------------------------|-------------------------------------|------------------------|

G|------10---10-------------12---12--------|-----------------------------------------|
D|-8--------------10---10------------------|---------------------10------------------|
A|-----------------------------------------|-----------5----10--------10---10---8----|
E|------------------------------------10---|-10---10---------------------------------|

G|-------------------------------------|-------------------------------------|------10---10-------------12---12---19---|
D|-------7----8----8----7----7---------|-------9----10---10---9----%----8----|-8--------------10---10------------------|
A|-8-----8---------8---------8----10---|-10----10--------10--------%---------|-----------------------------------------|
E|-------------------------------------|-------------------------------------|-----------------------------------------|

G|-19---19---19---19---19---17-------------|-----------------------------------------|
D|-------------------------------19---15---|-15---15---15---15---15---15---14---17---|
A|-----------------------------------------|-----------------------------------------|
E|-----------------------------------------|-----------------------------------------|

G|---------------------------------------15---|-15--------15-----------17-------------19---|
D|-17---17---17---17---17---17---14--15-------|------15--------15--17-------17---%---------|
A|--------------------------------------------|----------------------------------%---------|
E|--------------------------------------------|--------------------------------------------|

G|-19---19---19---19---19---17-------------|-----------------------------------------|
D|-------------------------------19---15---|-15---15---15---15---15---14--------17---|
A|-----------------------------------------|-------------------------------17--------|
E|-----------------------------------------|-----------------------------------------|

G|---------------------------------------15---|-15--------15-----------17--------------|
D|-17---17---17---17---17---17---14--15-------|------15--------15--17-------15---15----|
A|--------------------------------------------|----------------------------------------|
E|--------------------------------------------|----------------------------------------|

G|-----------------------------------------|-----------------------------------------|
D|-----------------------------------------|-----------------------------------------|
A|-5----5----5----5----5----5----5----5----|-5----5----5----5----5----5----5----5----|
E|-----------------------------------------|-----------------------------------------|

G|-----------------------------------------|-----------------------------------------|
D|-----------------------------------------|-----------------------------------------|
A|-5----5----5----5----5----5----5----5----|-5----5----5----5----5----5----5----5----|
E|-----------------------------------------|-----------------------------------------|

G|-----------------------------------------|-----------------------------------------|
D|-----------------------------------------|-----------------------------------------|
A|-5----5----5----5----5----5----5----5----|-5----5----5----5----5----5----5----5----|
E|-----------------------------------------|-----------------------------------------|

G|-------------------------------------|-----------------------------------------|-----------------------------------------|
D|-------------------------------------|-----------------------------------------|-----------------------------------------|
A|-2----3----3----3----3----2----------|-5----5----5----5----5----5----5----5----|-5----5----5----5----5----5----5----3----|
E|-------------------------------3-----|-----------------------------------------|-----------------------------------------|

G|-----------------------------------------|-----------------------------------------|
D|-----------------------------------------|-----------------------------------------|
A|-3----3----3----3----3----3----3----2----|-2----2----2----2----2----2----2----3----|
E|-----------------------------------------|-----------------------------------------|

G|-----------------------------------------|---------------------7-------------------|
D|-----------------------------------------|-----------4----7---------7----4---------|
A|-3----3----3----3----3----3----3----5----|-5----5-----------------------------3----|
E|-----------------------------------------|-----------------------------------------|

G|-----------------------------------------|-----------------------------------------|
D|-----------------------------------------|-----------------------------------------|
A|-3----3----3----3----3----3----3----2----|-2----2----2----2----2----2----2----3----|
E|-----------------------------------------|-----------------------------------------|

G|-------------------------------------------------------------|-----------------------------------------|
D|-----------------------------------------4---------5---------|-7--------------7--------------7---------|
A|-3----3----3----3----3----5----5----5---------5---------5----|------5----5---------5----5---------5----|
E|-------------------------------------------------------------|-----------------------------------------|

G|-------------------------------------------------------------|-----------------------------------------|
D|------7--------------7-------------------4---------7---------|-7--------------7--------------7---------|
A|-5---------5----5---------5----5----5---------5---------5----|------5----5---------5----5---------5----|
E|-------------------------------------------------------------|-----------------------------------------|

G|-------------------------------------------------------------|-----------------------------------------|
D|------7--------------7-------------------4---------7---------|-7--------------7--------------7---------|
A|-5---------5----5---------5----5----5---------5---------5----|------5----5---------5----5---------5----|
E|-------------------------------------------------------------|-----------------------------------------|

G|-------------------------------------------------------------|-----------------------------------------|
D|------7--------------7-------------------2---------3---------|-5--------------5--------------5---------|
A|-5---------5----5---------3----3----3---------3---------3----|------3----3---------3----3---------3----|
E|-------------------------------------------------------------|-----------------------------------------|

G|-------------------------------------------------------------|-----------------------------------------|
D|------5--------------5-------------------2---------5---------|-7--------------7--------------7---------|
A|-3---------3----3---------3----3----3---------3---------3----|------5----5---------5----5---------5----|
E|-------------------------------------------------------------|-----------------------------------------|

G|-------------------------------------------------------------|---------------------------------------------------------|
D|------7--------------7-------------------4---------5---------|------7----------------------------------------%---------|
A|-5---------5----5---------5----5----5---------5---------5----|-5---------5----5----5----5----5----5----5-----%----5----|
E|-------------------------------------------------------------|---------------------------------------------------------|

G|---------|---------------|---------------------------|---------|---------------|---------------------------|
D|---------|---------------|-----------------%---------|---------|---------------|-----------------%---------|
A|-5-------|-5-------5-----|-5----5----5-----%----5----|-5-------|-5-------3-----|-3----3----3-----%----3----|
E|---------|---------------|---------------------------|---------|---------------|---------------------------|

G|---------|---------------|-----------------------|-----------------------------|
D|---------|---------------|-----------------%-----|-----------------------%-----|
A|-3-------|-3-------5-----|-5----5----5-----%-----|-5-----3----5----5-----%-----|
E|---------|---------------|-----------------------|-----------------------------|
Iron Maiden - The Number Of The Beast (2)
Iron Maiden - The Number Of The Beast (2).gp3