Iron Maiden - The Prisoner (2)

Iron Maiden



Title: The Prisoner
Album: The Number Of The Beast
Artist: Iron Maiden
Author: Iron Maiden

Track 1: Bass
E|---------|---------|----------------------------------|---------------------------------------|
B|---------|---------|----------------------------------|---------------------------------------|
G|-%-------|-%-------|----------------------%----%------|-----------------------7-----7----%----|
D|-%-------|-%-------|-9---9---9---7---9----%----%------|-9---9---9---7---9-----7-----7----%----|
A|---------|---------|-9---9---9---7---9----------------|-9---9---9---7---9-----5-----5---------|
E|---------|---------|-7---7---7---5---7----------------|-7---7---7---5---7---------------------|

E|----------------------------------|-----------------------------------|----------------------------------|
B|----------------------------------|-----------------------------------|----------------------------------|
G|----------------------%----%------|-----------------------------------|----------------------%----%------|
D|-7---7---7---5---7----%----%------|-4---4---4---2---4-----7-----2-----|-9---9---9---7---9----%----%------|
A|-7---7---7---5---7----------------|-4---4---4---2---4-----7-----2-----|-9---9---9---7---9----------------|
E|-5---5---5---3---5----------------|-2---2---2---0---2-----5-----0-----|-7---7---7---5---7----------------|

E|-------------------------------------------|----------------------------------|---------------------------------------|
B|-------------------------------------------|----------------------------------|---------------------------------------|
G|----------------------7-----7----%----%----|----------------------%----%------|----------------------------------%----|
D|-9---9---9---7---9----7-----7----%----%----|-7---7---7---5---7----%----%------|-4---4---4---2---4----5-----7-----%----|
A|-9---9---9---7---9----5-----5--------------|-7---7---7---5---7----------------|-4---4---4---2---4----5-----7----------|
E|-7---7---7---5---7-------------------------|-5---5---5---3---5----------------|-2---2---2---0---2----3-----5----------|

E|--------------------------------------------------------|--------------------------------------------------|
B|--------------------------------------------------------|--------------------------------------------------|
G|--------------------------------------------------------|--------------------------------------------------|
D|-4---4---4---4---4---4---4---4----4---2-----------------|-4---4---4---4---4---4---4---4---7-----6-----2----|
A|-2---2---2---2---2---2---2---2----2---0----5---5---2----|-2---2---2---2---2---2---2---2---5-----4-----0----|
E|-------------------------------------------3---3---0----|--------------------------------------------------|

E|----------------------------------------------------0---|-0-----0-----0----------|
B|----------------------------------------------------3---|-3-----3-----0----------|
G|----------------------------------------------------2---|-2-----2-----1------%---|
D|-4---4---4---4---4---4---4---4----4---2-----------------|--------------------%---|
A|-2---2---2---2---2---2---2---2----2---0----5----2-------|------------------------|
E|-------------------------------------------3----0-------|------------------------|

E|--------------------------------------------------------|--------------------------------------------------|
B|--------------------------------------------------------|--------------------------------------------------|
G|--------------------------------------------------------|--------------------------------------------------|
D|-4---4---4---4---4---4---4---4----4---2-----------------|-4---4---4---4---4---4---4---4---7-----6-----2----|
A|-2---2---2---2---2---2---2---2----2---0----5---5---2----|-2---2---2---2---2---2---2---2---5-----4-----0----|
E|-------------------------------------------3---3---0----|--------------------------------------------------|

E|----------------------------------------------------0---|-0-----0-----0----------|
B|----------------------------------------------------3---|-3-----3-----0----------|
G|----------------------------------------------------2---|-2-----2-----1------%---|
D|-4---4---4---4---4---4---4---4----4---2-----------------|--------------------%---|
A|-2---2---2---2---2---2---2---2----2---0----5----2-------|------------------------|
E|-------------------------------------------3----0-------|------------------------|

E|--------------------------------------------------------|--------------------------------------------------|
B|--------------------------------------------------------|--------------------------------------------------|
G|--------------------------------------------------------|--------------------------------------------------|
D|-4---4---4---4---4---4---4---4----4---2-----------------|-4---4---4---4---4---4---4---4---7-----6-----2----|
A|-2---2---2---2---2---2---2---2----2---0----5---5---2----|-2---2---2---2---2---2---2---2---5-----4-----0----|
E|-------------------------------------------3---3---0----|--------------------------------------------------|

E|----------------------------------------------------0---|-0-----0-----0----------|
B|----------------------------------------------------3---|-3-----3-----0----------|
G|----------------------------------------------------2---|-2-----2-----1------%---|
D|-4---4---4---4---4---4---4---4----4---2-----------------|--------------------%---|
A|-2---2---2---2---2---2---2---2----2---0----5----2-------|------------------------|
E|-------------------------------------------3----0-------|------------------------|

E|--------------------------------------------------------|--------------------------------------------------|
B|--------------------------------------------------------|--------------------------------------------------|
G|--------------------------------------------------------|--------------------------------------------------|
D|-4---4---4---4---4---4---4---4----4---2-----------------|-4---4---4---4---4---4---4---4---7-----6-----2----|
A|-2---2---2---2---2---2---2---2----2---0----5---5---2----|-2---2---2---2---2---2---2---2---5-----4-----0----|
E|-------------------------------------------3---3---0----|--------------------------------------------------|

E|----------------------------------------------------0---|-0-----0-----0----------|
B|----------------------------------------------------3---|-3-----3-----0----------|
G|----------------------------------------------------2---|-2-----2-----1------%---|
D|-4---4---4---4---4---4---4---4----4---2-----------------|--------------------%---|
A|-2---2---2---2---2---2---2---2----2---0----5----2-------|------------------------|
E|-------------------------------------------3----0-------|------------------------|

E|--------------------------------------------------------|--------------------------------------------------------|
B|--------------------------------------------------------|--------------------------------------------------------|
G|-5------------5--------7---7---------------7------------|-5------------5--------7---7---------------7------------|
D|-5------------5--------7---7---------------7------------|-5------------5--------7---7---------------7------------|
A|-0----0---0---0----0---0---0---0---0---0---0----0---0---|-0----0---0---0----0---0---0---0---0---0---0----0---0---|
E|--------------------------------------------------------|--------------------------------------------------------|

E|--------------------------------------------------------|--------------------------------------------------------|
B|--------------------------------------------------------|--------------------------------------------------------|
G|-5------------5--------7---7---------------7------------|-5------------5--------7---7---------------7------------|
D|-5------------5--------7---7---------------7------------|-5------------5--------7---7---------------7------------|
A|-0----0---0---0----0---0---0---0---0---0---0----0---0---|-0----0---0---0----0---0---0---0---0---0---0----0---0---|
E|--------------------------------------------------------|--------------------------------------------------------|

E|-------------------------------------------|-------------------------------------------|
B|-8----8----8----6----6-----5---6---5---6---|-8----8----8----6----6-----5---6---5---6---|
G|-7----7----7----5----5-----4---5---4---5---|-7----7----7----5----5-----4---5---4---5---|
D|-7----7----7----5----5-----4---5---4---5---|-7----7----7----5----5-----4---5---4---5---|
A|-------------------------------------------|-------------------------------------------|
E|-------------------------------------------|-------------------------------------------|

E|---------------|----------------------------0---0---|-0----------0----0---------0-----|
B|-5------4------|----------------------------0---0---|-0----------0----------0---0-----|
G|-4------4------|-4--------------4----4------9---9---|-9-----9----9--------------9-----|
D|-4------4------|-4-----2---2----4----4------9---9---|-9-----9-------------------9-----|
A|-2------2------|-2-----2---2----2----2------7---7---|-7-------------------------------|
E|---------------|-------0---0----------------0---0---|-0-------------------------------|

E|-----------------0---------0-----|-----------------0---------0-----|---------------|
B|-0----------0----------0---0-----|-0---------------0-----0---0-----|---------------|
G|-4-----4----4--------------4-----|-2-----2----2--------------2-----|-6------4------|
D|-4-----4-------------------4-----|-2-----2-------------------2-----|-6------4------|
A|-2-------------------------2-----|-0-------------------------0-----|-4------2------|
E|---------------------------------|---------------------------------|---------------|

E|-0----------0----0---------0-----|-----------------0---------0-----|-----------------0---------0-----|
B|-0----------0----------0---0-----|-0----------0----------0---0-----|-0---------------0-----0---0-----|
G|-9-----9----9--------------9-----|-4-----4----4--------------4-----|-2-----2----2--------------2-----|
D|-9-----9-------------------9-----|-4-----4-------------------4-----|-2-----2-------------------2-----|
A|-7-------------------------7-----|-2-------------------------2-----|-0-------------------------0-----|
E|-0-------------------------0-----|---------------------------------|---------------------------------|

E|---------------|-0----------0----0---------0-----|-----------------0---------0-----|
B|---------------|-0----------0----------0---0-----|-0----------0----------0---0-----|
G|-6------7------|-9-----9----9--------------9-----|-4-----4----4--------------4-----|
D|-6------7------|-9-----9-------------------9-----|-4-----4-------------------4-----|
A|-4------5------|-7-------------------------------|-2-------------------------2-----|
E|---------------|-0-------------------------------|---------------------------------|

E|-----------------0---------0-----|---------------|-0----------0----0---------0-----|
B|-0---------------0-----0---0-----|---------------|-0----------0----------0---0-----|
G|-2-----2----2--------------2-----|-6------4------|-9-----9----9--------------9-----|
D|-2-----2-------------------2-----|-6------4------|-9-----9-------------------9-----|
A|-0-------------------------0-----|-4------2------|-7-------------------------7-----|
E|---------------------------------|---------------|-0-------------------------0-----|

E|-----------------0---------0-----|-----------------0---------0-----|---------------|
B|-0----------0----------0---0-----|-0---------------0-----0---0-----|---------------|
G|-4-----4----4--------------4-----|-2-----2----2--------------2-----|-6------7------|
D|-4-----4-------------------4-----|-2-----2-------------------2-----|-6------7------|
A|-2-------------------------2-----|-0-------------------------0-----|-4------5------|
E|---------------------------------|---------------------------------|---------------|

E|-----------------------------------------------------------------|-----------------------------------------------------------------|
B|-----------------------------------------------------------------|-----------------------------------------------------------------|
G|-----7---11------7---11------7---11------7---11------7---11------|-7---11------7---11------7---11------7---11------7---11------7---|
D|-9-----------9-----------9-----------9-----------9-----------9---|---------9-----------9-----------9-----------9-----------9-------|
A|-----------------------------------------------------------------|-----------------------------------------------------------------|
E|-----------------------------------------------------------------|-----------------------------------------------------------------|

E|-----------------------------------------------------------------|-----------------------------------------------------------------|
B|-----------------------------------------------------------------|-----------------------------------------------------------------|
G|-----6---9-------6---9-------6---9-------6---9-------6---9---6---|-----3---6-------3---6-------3-------4---7-----------6---9-------|
D|-7-----------7-----------7-----------7-----------7---------------|-4-----------4-----------4-------5-----------5---7-----------7---|
A|-----------------------------------------------------------------|-----------------------------------------------------------------|
E|-----------------------------------------------------------------|-----------------------------------------------------------------|

E|-----------------------------------------------------------------|-----------------------------------------------------------------|
B|-----------------------------------------------------------------|-----------------------------------------------------------------|
G|-----7---11------7---11------7---11------7---11------7---11------|-7---11------7---11------7---11------7---11------7---11------7---|
D|-9-----------9-----------9-----------9-----------9-----------9---|---------9-----------9-----------9-----------9-----------9-------|
A|-----------------------------------------------------------------|-----------------------------------------------------------------|
E|-----------------------------------------------------------------|-----------------------------------------------------------------|

E|-----------------------------------------------------------------|-----------------------------------------------------------------|
B|-----------------------------------------------------------------|-----------------------------------------------------------------|
G|-----6---9-------6---9-------6---9-------6---9-------6---9---6---|-----3---6-------3---6-------3-------4---7-----------6---9-------|
D|-7-----------7-----------7-----------7-----------7---------------|-4-----------4-----------4-------5-----------5---7-----------7---|
A|-----------------------------------------------------------------|-----------------------------------------------------------------|
E|-----------------------------------------------------------------|-----------------------------------------------------------------|

E|-----------------------------------------------------------------|-----------------------------------------------------------------|
B|-----------------------------------------------------------------|-----------------------------------------------------------------|
G|-----7---11------7---11------7---11------7---11------7---11------|-7---11------7---11------7---11------7---11------7---11------7---|
D|-9-----------9-----------9-----------9-----------9-----------9---|---------9-----------9-----------9-----------9-----------9-------|
A|-----------------------------------------------------------------|-----------------------------------------------------------------|
E|-----------------------------------------------------------------|-----------------------------------------------------------------|

E|-----------------------------------------------------------------|-----------------------------------------------------------------|
B|-----------------------------------------------------------------|-----------------------------------------------------------------|
G|-----6---9-------6---9-------6---9-------6---9-------6---9---6---|-----3---6-------3---6-------3-------4---7-----------6---9-------|
D|-7-----------7-----------7-----------7-----------7---------------|-4-----------4-----------4-------5-----------5---7-----------7---|
A|-----------------------------------------------------------------|-----------------------------------------------------------------|
E|-----------------------------------------------------------------|-----------------------------------------------------------------|

E|-----------------------------------------------------------------|-----------------------------------------------------------------|
B|-----------------------------------------------------------------|-----------------------------------------------------------------|
G|-----7---11------7---11------7---11------7---11------7---11------|-7---11------7---11------7---11------7---11------7---11------7---|
D|-9-----------9-----------9-----------9-----------9-----------9---|---------9-----------9-----------9-----------9-----------9-------|
A|-----------------------------------------------------------------|-----------------------------------------------------------------|
E|-----------------------------------------------------------------|-----------------------------------------------------------------|

E|-----------------------------------------------------------------|-----------------------------------------------------------------|
B|-----------------------------------------------------------------|-----------------------------------------------------------------|
G|-----6---9-------6---9-------6---9-------6---9-------6---9---6---|-----3---6-------3---6-------3-------4---7-----------6---9-------|
D|-7-----------7-----------7-----------7-----------7---------------|-4-----------4-----------4-------5-----------5---7-----------7---|
A|-----------------------------------------------------------------|-----------------------------------------------------------------|
E|-----------------------------------------------------------------|-----------------------------------------------------------------|

E|-----------------------------------------------------|-----------------------------------------------------|
B|-----------------------------------------------------|-----------------------------------------------------|
G|-----------------------------------------------------|-----------------------------------------------------|
D|-4----4---4---4----4---4---4----4---4---4----4---4---|-4----4---4---4----4---4---7----7---7---7----7---7---|
A|-2----2---2---2----2---2---2----2---2---2----2---2---|-2----2---2---2----2---2---5----5---5---5----5---5---|
E|-----------------------------------------------------|-----------------------------------------------------|

E|-----------------------------------------------------|---------------------------------------|
B|-----------------------------------------------------|---------------------------------------|
G|-----------------------------------------------------|---------------------------------------|
D|-----------------------------------------------------|---------------------------------------|
A|-7----7---7---7----7---7---7----7---7---7----7---7---|-4----4---4---4----4---4---7-----2-----|
E|-5----5---5---5----5---5---5----5---5---5----5---5---|-2----2---2---2----2---2---5-----0-----|

E|-----------------------------------------------------|-----------------------------------------------------|
B|-----------------------------------------------------|-----------------------------------------------------|
G|-----------------------------------------------------|-----------------------------------------------------|
D|-4----4---4---4----4---4---4----4---4---4----4---4---|-4----4---4---4----4---4---7----7---7---7----7---7---|
A|-2----2---2---2----2---2---2----2---2---2----2---2---|-2----2---2---2----2---2---5----5---5---5----5---5---|
E|-----------------------------------------------------|-----------------------------------------------------|

E|-----------------------------------------------------|---------------------------------------|
B|-----------------------------------------------------|---------------------------------------|
G|-----------------------------------------------------|---------------------------------------|
D|-----------------------------------------------------|---------------------------------------|
A|-7----7---7---7----7---7---7----7---7---7----7---7---|-4----4---4---4----4---4---5-----7-----|
E|-5----5---5---5----5---5---5----5---5---5----5---5---|-2----2---2---2----2---2---3-----5-----|

E|-------------------------------------------------------------------------------------|
B|-14--15--14--15--14--12------12--15--14--12------12--15--14--12------12--15--14--12--|
G|-------------------------16------------------16------------------16------------------|
D|-------------------------------------------------------------------------------------|
A|-------------------------------------------------------------------------------------|
E|-------------------------------------------------------------------------------------|

E|------------------------------------------------|-14--15--14--14--15--14--14--14--15--14--14--14--15--14--14--14--15--14--14--14--15--14--14--14--|
B|-----12--15--14--12------12--15--14--12--17-----|-------------------------------------------------------------------------------------------------|
G|-16------------------16-------------------------|-------------------------------------------------------------------------------------------------|
D|------------------------------------------------|-------------------------------------------------------------------------------------------------|
A|------------------------------------------------|-------------------------------------------------------------------------------------------------|
E|------------------------------------------------|-------------------------------------------------------------------------------------------------|

E|-17-----17-----|-----7-------7-------7------------7-------7---7-------------------|
B|---------------|-10------10------10------7----10------10----------7---10--7---7---|
G|---------------|------------------------------------------------------------------|
D|---------------|------------------------------------------------------------------|
A|---------------|------------------------------------------------------------------|
E|---------------|------------------------------------------------------------------|

E|-------------------------------------------------------------------------------------|
B|---------------------------------------------------------------------14--15--17--15--|
G|-9---7---9---7---7---6---7---6-------------------------------------------------------|
D|---------------------------------9---7---9---7---------------------------------------|
A|-------------------------------------------------9---7---9---7---5-------------------|
E|-------------------------------------------------------------------------------------|

E|---------------------------------------------------------------------------------------------|
B|-14--15--14--14--17--15--14--15--14--14--17--15--14--15--14--17--15--14--17--15--14--14--15--|
G|---------------------------------------------------------------------------------------------|
D|---------------------------------------------------------------------------------------------|
A|---------------------------------------------------------------------------------------------|
E|---------------------------------------------------------------------------------------------|

E|-------------14--15--14--15--14--15--17--17---17---17----|-17---------17---0---------0-----|
B|-14--15--14----------------------------------------------|-14---------14---------0---0-----|
G|---------------------------------------------------------|-6-----6----9--------------9-----|
D|---------------------------------------------------------|-7-----9-------------------9-----|
A|---------------------------------------------------------|-5-------------------------------|
E|---------------------------------------------------------|-5-------------------------------|

E|-----------------0---------0-----|-----------------0---------0-----|---------------|
B|-0----------0----------0---0-----|-0---------------0-----0---0-----|---------------|
G|-4-----4----4--------------4-----|-2-----2----2--------------2-----|-6------4------|
D|-4-----4-------------------4-----|-2-----2-------------------2-----|-6------4------|
A|-2-------------------------2-----|-0-------------------------0-----|-4------2------|
E|---------------------------------|---------------------------------|---------------|

E|-0----------0----0---------0-----|-----------------0---------0-----|-----------------0---------0-----|
B|-0----------0----------0---0-----|-0----------0----------0---0-----|-0---------------0-----0---0-----|
G|-9-----9----9--------------9-----|-4-----4----4--------------4-----|-2-----2----2--------------2-----|
D|-9-----9-------------------9-----|-4-----4-------------------4-----|-2-----2-------------------2-----|
A|-7-------------------------7-----|-2-------------------------2-----|-0-------------------------0-----|
E|-0-------------------------0-----|---------------------------------|---------------------------------|

E|---------------|-0----------0----0---------0-----|-----------------0---------0-----|
B|---------------|-0----------0----------0---0-----|-0----------0----------0---0-----|
G|-6------7------|-9-----9----9--------------9-----|-4-----4----4--------------4-----|
D|-6------7------|-9-----9-------------------9-----|-4-----4-------------------4-----|
A|-4------5------|-7-------------------------------|-2-------------------------2-----|
E|---------------|-0-------------------------------|---------------------------------|

E|-----------------0---------0-----|---------------|-0----------0----0---------0-----|
B|-0---------------0-----0---0-----|---------------|-0----------0----------0---0-----|
G|-2-----2----2--------------2-----|-6------4------|-4-----4----9--------------9-----|
D|-2-----2-------------------2-----|-6------4------|-4-----9-------------------9-----|
A|-0-------------------------0-----|-4------2------|-2-------------------------------|
E|---------------------------------|---------------|-0-------------------------------|

E|-----------------0---------0-----|-----------------0---------0-----|---------------|
B|-0----------0----------0---0-----|-0---------------0-----0---0-----|---------------|
G|-4-----4----4--------------4-----|-2-----2----2--------------2-----|-6------4------|
D|-4-----4-------------------4-----|-2-----2-------------------2-----|-6------4------|
A|-2-------------------------2-----|-0-------------------------0-----|-4------2------|
E|---------------------------------|---------------------------------|---------------|

E|-0----------0----0---------0-----|-----------------0---------0-----|-----------------0---------0-----|
B|-0----------0----------0---0-----|-0----------0----------0---0-----|-0---------------0-----0---0-----|
G|-4-----4----9--------------9-----|-4-----4----4--------------4-----|-2-----2----2--------------2-----|
D|-4-----9-------------------9-----|-4-----4-------------------4-----|-2-----2-------------------2-----|
A|-2-------------------------------|-2-------------------------2-----|-0-------------------------0-----|
E|-0-------------------------------|---------------------------------|---------------------------------|

E|---------------|-0----------0----0---------0-----|-----------------0---------0-----|
B|---------------|-0----------0----------0---0-----|-0----------0----------0---0-----|
G|-6------4------|-4-----4----9--------------9-----|-4-----4----4--------------4-----|
D|-6------4------|-4-----9-------------------9-----|-4-----4-------------------4-----|
A|-4------2------|-2-------------------------------|-2-------------------------2-----|
E|---------------|-0-------------------------------|---------------------------------|

E|-----------------0---------0-----|---------------|-0-------|-0-------|
B|-0---------------0-----0---0-----|---------------|-0-------|-0-------|
G|-2-----2----2--------------2-----|-6------4------|-9-------|-9-------|
D|-2-----2-------------------2-----|-6------4------|-9-------|-9-------|
A|-0-------------------------0-----|-4------2------|-7-------|-7-------|
E|---------------------------------|---------------|-0-------|-0-------|
Iron Maiden - The Prisoner (2)
Iron Maiden - The Prisoner (2).gp3