Iron Maiden - The Prophecy (3)

Iron Maiden - The Prophecy (3)

Iron Maiden



Title: The Prophecy
Album: Seventh Son Of A Seventh Son
Artist: IRON MAIDEN
Author: Murray/Harris

Track 1: Guitar Clean 1
E|------7--------------7-----3-----|-3----3--------------3---------------|------3--------------3-----5-----|
B|-----------10--------------6-----|-6---------6--------------6----------|-----------6---------------5-----|
G|-9--------------9----------5-----|-5--------------5--------------5-----|-4--------------4----------5-----|
D|---------------------------------|-------------------------------------|---------------------------------|
A|---------------------------------|-------------------------------------|---------------------------------|
E|---------------------------------|-------------------------------------|---------------------------------|

E|-5----5--------------5---------------|------7--------------7-----3-----|-3----3--------------3---------------|
B|-5---------5--------------5----------|-----------10--------------6-----|-6---------6--------------6----------|
G|-5--------------5--------------5-----|-9--------------9----------5-----|-5--------------5--------------5-----|
D|-------------------------------------|---------------------------------|-------------------------------------|
A|-------------------------------------|---------------------------------|-------------------------------------|
E|-------------------------------------|---------------------------------|-------------------------------------|

E|------3--------------3-----5-----|-5----5--------------5---------------|------7--------------7-----3-----|
B|-----------6---------------5-----|-5---------5--------------5----------|-----------10--------------6-----|
G|-4--------------4----------5-----|-5--------------5--------------5-----|-9--------------9----------5-----|
D|---------------------------------|-------------------------------------|---------------------------------|
A|---------------------------------|-------------------------------------|---------------------------------|
E|---------------------------------|-------------------------------------|---------------------------------|

E|-3----3--------------3---------------|------3--------------3-----5-----|-5----5--------------5---------------|
B|-6---------6--------------6----------|-----------6---------------5-----|-5---------5--------------5----------|
G|-5--------------5--------------5-----|-4--------------4----------5-----|-5--------------5--------------5-----|
D|-------------------------------------|---------------------------------|-------------------------------------|
A|-------------------------------------|---------------------------------|-------------------------------------|
E|-------------------------------------|---------------------------------|-------------------------------------|

E|---------|--------------|--------------|--------------|--------------|--------------|
B|---------|--------------|--------------|--------------|--------------|--------------|
G|-5-------|-%------%-----|-%------%-----|-%------%-----|-%------%-----|-%------%-----|
D|---------|-%------%-----|-%------%-----|-%------%-----|-%------%-----|-%------%-----|
A|---------|--------------|--------------|--------------|--------------|--------------|
E|---------|--------------|--------------|--------------|--------------|--------------|

E|--------------|--------------|-------------------|--------------|--------------|--------------|
B|--------------|--------------|-------------------|--------------|--------------|--------------|
G|-%------%-----|-%------%-----|-%------%-----%----|-%------%-----|-%------%-----|-%------%-----|
D|-%------%-----|-%------%-----|-%------%-----%----|-%------%-----|-%------%-----|-%------%-----|
A|--------------|--------------|-------------------|--------------|--------------|--------------|
E|--------------|--------------|-------------------|--------------|--------------|--------------|

E|--------------|--------------|--------------|--------------|--------------|--------------|
B|--------------|--------------|--------------|--------------|--------------|--------------|
G|-%------%-----|-%------%-----|-%------%-----|-%------%-----|-%------%-----|-%------%-----|
D|-%------%-----|-%------%-----|-%------%-----|-%------%-----|-%------%-----|-%------%-----|
A|--------------|--------------|--------------|--------------|--------------|--------------|
E|--------------|--------------|--------------|--------------|--------------|--------------|

E|--------------|--------------|--------------|--------------|--------------|--------------|
B|--------------|--------------|--------------|--------------|--------------|--------------|
G|-%------%-----|-%------%-----|-%------%-----|-%------%-----|-%------%-----|-%------%-----|
D|-%------%-----|-%------%-----|-%------%-----|-%------%-----|-%------%-----|-%------%-----|
A|--------------|--------------|--------------|--------------|--------------|--------------|
E|--------------|--------------|--------------|--------------|--------------|--------------|

E|--------------|--------------|--------------|--------------|--------------|--------------|
B|--------------|--------------|--------------|--------------|--------------|--------------|
G|-%------%-----|-%------%-----|-%------%-----|-%------%-----|-%------%-----|-%------%-----|
D|-%------%-----|-%------%-----|-%------%-----|-%------%-----|-%------%-----|-%------%-----|
A|--------------|--------------|--------------|--------------|--------------|--------------|
E|--------------|--------------|--------------|--------------|--------------|--------------|

E|--------------|--------------|--------------|--------------|--------------|--------------|
B|--------------|--------------|--------------|--------------|--------------|--------------|
G|-%------%-----|-%------%-----|-%------%-----|-%------%-----|-%------%-----|-%------%-----|
D|-%------%-----|-%------%-----|-%------%-----|-%------%-----|-%------%-----|-%------%-----|
A|--------------|--------------|--------------|--------------|--------------|--------------|
E|--------------|--------------|--------------|--------------|--------------|--------------|

E|--------------|--------------|--------------|--------------|--------------|--------------|
B|--------------|--------------|--------------|--------------|--------------|--------------|
G|-%------%-----|-%------%-----|-%------%-----|-%------%-----|-%------%-----|-%------%-----|
D|-%------%-----|-%------%-----|-%------%-----|-%------%-----|-%------%-----|-%------%-----|
A|--------------|--------------|--------------|--------------|--------------|--------------|
E|--------------|--------------|--------------|--------------|--------------|--------------|

E|--------------|--------------|--------------|--------------|--------------|--------------|
B|--------------|--------------|--------------|--------------|--------------|--------------|
G|-%------%-----|-%------%-----|-%------%-----|-%------%-----|-%------%-----|-%------%-----|
D|-%------%-----|-%------%-----|-%------%-----|-%------%-----|-%------%-----|-%------%-----|
A|--------------|--------------|--------------|--------------|--------------|--------------|
E|--------------|--------------|--------------|--------------|--------------|--------------|

E|--------------|--------------|--------------|--------------|--------------|--------------|
B|--------------|--------------|--------------|--------------|--------------|--------------|
G|-%------%-----|-%------%-----|-%------%-----|-%------%-----|-%------%-----|-%------%-----|
D|-%------%-----|-%------%-----|-%------%-----|-%------%-----|-%------%-----|-%------%-----|
A|--------------|--------------|--------------|--------------|--------------|--------------|
E|--------------|--------------|--------------|--------------|--------------|--------------|

E|--------------|--------------|--------------|--------------|--------------|--------------|
B|--------------|--------------|--------------|--------------|--------------|--------------|
G|-%------%-----|-%------%-----|-%------%-----|-%------%-----|-%------%-----|-%------%-----|
D|-%------%-----|-%------%-----|-%------%-----|-%------%-----|-%------%-----|-%------%-----|
A|--------------|--------------|--------------|--------------|--------------|--------------|
E|--------------|--------------|--------------|--------------|--------------|--------------|

E|--------------|--------------|--------------|--------------|--------------|---------|
B|--------------|--------------|--------------|--------------|--------------|---------|
G|-%------%-----|-%------%-----|-%------%-----|-%------%-----|-%------%-----|-%-------|
D|-%------%-----|-%------%-----|-%------%-----|-%------%-----|-%------%-----|-%-------|
A|--------------|--------------|--------------|--------------|--------------|---------|
E|--------------|--------------|--------------|--------------|--------------|---------|

E|---------|---------|---------|---------|---------|---------|---------|---------|---------|
B|---------|---------|---------|---------|---------|---------|---------|---------|---------|
G|-%-------|-%-------|-%-------|-%-------|-%-------|-%-------|-%-------|-%-------|-%-------|
D|-%-------|-%-------|-%-------|-%-------|-%-------|-%-------|-%-------|-%-------|-%-------|
A|---------|---------|---------|---------|---------|---------|---------|---------|---------|
E|---------|---------|---------|---------|---------|---------|---------|---------|---------|

E|---------|---------|---------|---------|---------|---------|--------------|--------------|
B|---------|---------|---------|---------|---------|---------|--------------|--------------|
G|-%-------|-%-------|-%-------|-%-------|-%-------|-%-------|-%------%-----|-%------%-----|
D|-%-------|-%-------|-%-------|-%-------|-%-------|-%-------|-%------%-----|-%------%-----|
A|---------|---------|---------|---------|---------|---------|--------------|--------------|
E|---------|---------|---------|---------|---------|---------|--------------|--------------|

E|--------------|--------------|--------------|--------------|--------------|--------------|
B|--------------|--------------|--------------|--------------|--------------|--------------|
G|-%------%-----|-%------%-----|-%------%-----|-%------%-----|-%------%-----|-%------%-----|
D|-%------%-----|-%------%-----|-%------%-----|-%------%-----|-%------%-----|-%------%-----|
A|--------------|--------------|--------------|--------------|--------------|--------------|
E|--------------|--------------|--------------|--------------|--------------|--------------|

E|--------------|--------------|--------------|--------------|--------------|--------------|
B|--------------|--------------|--------------|--------------|--------------|--------------|
G|-%------%-----|-%------%-----|-%------%-----|-%------%-----|-%------%-----|-%------%-----|
D|-%------%-----|-%------%-----|-%------%-----|-%------%-----|-%------%-----|-%------%-----|
A|--------------|--------------|--------------|--------------|--------------|--------------|
E|--------------|--------------|--------------|--------------|--------------|--------------|

E|--------------|--------------|--------------|--------------|--------------|--------------|
B|--------------|--------------|--------------|--------------|--------------|--------------|
G|-%------%-----|-%------%-----|-%------%-----|-%------%-----|-%------%-----|-%------%-----|
D|-%------%-----|-%------%-----|-%------%-----|-%------%-----|-%------%-----|-%------%-----|
A|--------------|--------------|--------------|--------------|--------------|--------------|
E|--------------|--------------|--------------|--------------|--------------|--------------|

E|--------------|--------------|--------------|--------------|--------------|--------------|
B|--------------|--------------|--------------|--------------|--------------|--------------|
G|-%------%-----|-%------%-----|-%------%-----|-%------%-----|-%------%-----|-%------%-----|
D|-%------%-----|-%------%-----|-%------%-----|-%------%-----|-%------%-----|-%------%-----|
A|--------------|--------------|--------------|--------------|--------------|--------------|
E|--------------|--------------|--------------|--------------|--------------|--------------|

E|--------------|--------------|--------------|--------------|--------------|--------------|
B|--------------|--------------|--------------|--------------|--------------|--------------|
G|-%------%-----|-%------%-----|-%------%-----|-%------%-----|-%------%-----|-%------%-----|
D|-%------%-----|-%------%-----|-%------%-----|-%------%-----|-%------%-----|-%------%-----|
A|--------------|--------------|--------------|--------------|--------------|--------------|
E|--------------|--------------|--------------|--------------|--------------|--------------|

E|--------------|--------------|--------------|--------------|--------------|--------------|
B|--------------|--------------|--------------|--------------|--------------|--------------|
G|-%------%-----|-%------%-----|-%------%-----|-%------%-----|-%------%-----|-%------%-----|
D|-%------%-----|-%------%-----|-%------%-----|-%------%-----|-%------%-----|-%------%-----|
A|--------------|--------------|--------------|--------------|--------------|--------------|
E|--------------|--------------|--------------|--------------|--------------|--------------|

E|--------------|--------------|--------------|--------------|--------------|--------------|
B|--------------|--------------|--------------|--------------|--------------|--------------|
G|-%------%-----|-%------%-----|-%------%-----|-%------%-----|-%------%-----|-%------%-----|
D|-%------%-----|-%------%-----|-%------%-----|-%------%-----|-%------%-----|-%------%-----|
A|--------------|--------------|--------------|--------------|--------------|--------------|
E|--------------|--------------|--------------|--------------|--------------|--------------|

E|--------------|--------------|--------------|--------------|--------------|--------------|
B|--------------|--------------|--------------|--------------|--------------|--------------|
G|-%------%-----|-%------%-----|-%------%-----|-%------%-----|-%------%-----|-%------%-----|
D|-%------%-----|-%------%-----|-%------%-----|-%------%-----|-%------%-----|-%------%-----|
A|--------------|--------------|--------------|--------------|--------------|--------------|
E|--------------|--------------|--------------|--------------|--------------|--------------|

E|--------------|--------------|--------------|--------------|--------------|--------------|
B|--------------|--------------|--------------|--------------|--------------|--------------|
G|-%------%-----|-%------%-----|-%------%-----|-%------%-----|-%------%-----|-%------%-----|
D|-%------%-----|-%------%-----|-%------%-----|-%------%-----|-%------%-----|-%------%-----|
A|--------------|--------------|--------------|--------------|--------------|--------------|
E|--------------|--------------|--------------|--------------|--------------|--------------|

E|--------------|--------------|---------------------5-----|-5---------------------|
B|--------------|--------------|------5----6----8----------|-------8----6----5-----|
G|-%------%-----|-%------%-----|-7-------------------------|-----------------------|
D|-%------%-----|-%------%-----|---------------------------|-----------------------|
A|--------------|--------------|---------------------------|-----------------------|
E|--------------|--------------|---------------------------|-----------------------|

E|-----------------------|----------------------------|---------------------5-----|
B|-8-----6----5----6-----|-5----6----5----------------|------5----6----8----------|
G|-----------------------|----------------7-----6-----|-7-------------------------|
D|-----------------------|----------------------------|---------------------------|
A|-----------------------|----------------------------|---------------------------|
E|-----------------------|----------------------------|---------------------------|

E|-5---------------------|-----------------------|----------------------------|-5----6----6---8-----8-----|
B|-------8----6----5-----|-8-----6----5----6-----|-5----6----5----------------|---------------------------|
G|-----------------------|-----------------------|----------------7-----6-----|---------------------------|
D|-----------------------|-----------------------|----------------------------|---------------------------|
A|-----------------------|-----------------------|----------------------------|---------------------------|
E|-----------------------|-----------------------|----------------------------|---------------------------|

E|-8-----6----8----10----|-10---13---10---8----10---8---10--8---|-6-------|-8----6---8---6---5------|
B|-----------------------|--------------------------------------|---------|-------------------------|
G|-----------------------|--------------------------------------|---------|-------------------------|
D|-----------------------|--------------------------------------|---------|-------------------------|
A|-----------------------|--------------------------------------|---------|-------------------------|
E|-----------------------|--------------------------------------|---------|-------------------------|

E|-6----5---6---5---3------|-5----3---5---3---1-----0-----|-1-------|
B|-------------------------|------------------------------|-3-------|
G|-------------------------|------------------------------|-2-------|
D|-------------------------|------------------------------|-0-------|
A|-------------------------|------------------------------|---------|
E|-------------------------|------------------------------|---------|
Iron Maiden - The Prophecy (3)
Iron Maiden - The Prophecy (3).gp3