Iron Maiden - The Thin Line Between Love And Hate

Iron Maiden



Title: The Thin Line Between Love And Hate
Album: Brave New World
Artist: Iron Maiden
Author: Iron Maiden

Track 1: Guitar 1 (Rhythm)
E|-----------------------------------------|-----------------------------------------|
B|-----------------------------------------|-----------------------------------------|
G|-----------------------------------------|-----------------------------------------|
D|-----------------------------------------|-----------------------------------------|
A|-----------4----4----0----0----2----2----|-----------4----4----0----0--------------|
E|-2----2----------------------------------|-2----2------------------------4----4----|

E|-----------------------------------------|-----------------------------------------|
B|-----------------------------------------|-----------------------------------------|
G|-----------------------------------------|-----------------------------------------|
D|-----------------------------------------|-----------------------------------------|
A|-----------2----2--------------0----0----|-----------2----2------------------------|
E|-0----0--------------3----3--------------|-0----0--------------3----3----0----0----|

E|-----------------------------------------|-----------------------------------------|
B|-----------------------------------------|-----------------------------------------|
G|-----------------------------------------|-----------------------------------------|
D|-----------4----4----0----0----2----2----|-----------4----4----0----0--------------|
A|-2----2----------------------------------|-2----2------------------------4----4----|
E|-----------------------------------------|-----------------------------------------|

E|-----------------------------------------|-----------------------------------------|
B|-----------------------------------------|-----------------------------------------|
G|-----------------------------------------|-----------------------------------------|
D|-----------0----0------------------------|-----------0----0------------------------|
A|---------------------2----2----0----0----|---------------------2----2--------------|
E|-3----3----------------------------------|-3----3------------------------3----3----|

E|-----------------------------------------|-------------------------------------|-----------------------------------------|
B|-----------------------------------------|-------------------------------------|-----------------------------------------|
G|-----------------------------------------|-------------------------------------|-2----4----4----4----4----4----4----4----|
D|-2----4----4----4----4----4----4----4----|-4----4----4----4--------------------|-2----4----4----4----4----4----4----4----|
A|-2----4----4----4----4----4----4----4----|-4----4----4----4--------------------|-0----2----2----2----2----2----2----2----|
E|-0----2----2----2----2----2----2----2----|-2----2----2----2----3----2----0-----|-----------------------------------------|

E|-------------------------------------|-------------------------------------|-----------------------------------------|
B|-------------------------------------|-------------------------------------|-----------------------------------------|
G|-4----4----4----4--------------------|-4----4----4----4--------------------|-------------------------------4----4----|
D|-4----4----4----4--------------------|-4----4----4----4--------------------|-4----4----4----4----4----4----4----4----|
A|-2----2----2----2----3----2----0-----|-2----2----2----2----3----2----0-----|-4----4----4----4----4----4----2----2----|
E|-------------------------------------|-------------------------------------|-2----2----2----2----2----2--------------|

E|---------------------------------|-----------------------------------------|---------------------------------|
B|---------------------------------|-----------------------------------------|---------------------------------|
G|-4----4----4----4----4-----4-----|-------------------------------4----4----|-4----4----4----4----4-----4-----|
D|-4----4----4----4----4-----4-----|-4----4----4----4----4----4----4----4----|-4----4----4----4----4-----4-----|
A|-2----2----2----2----2-----2-----|-4----4----4----4----4----4----2----2----|-2----2----2----2----2-----2-----|
E|---------------------------------|-2----2----2----2----2----2--------------|---------------------------------|

E|-----------------------------------------|---------------------------------|-----------------------------------------|
B|-----------------------------------------|---------------------------------|----------------6----6----6--------------|
G|-------------------------------4----4----|-4----4----4----4----4-----4-----|-7----7----7----5----5----5--------------|
D|-4----4----4----4----4----4----4----4----|-4----4----4----4----4-----4-----|-7----7----7----5----5----5----2----2----|
A|-4----4----4----4----4----4----2----2----|-2----2----2----2----2-----2-----|-5----5----5----0----0----0----2----2----|
E|-2----2----2----2----2----2--------------|---------------------------------|-------------------------------0----0----|

E|---------------------------------|-----------------------------------------|---------------------------------|
B|---------------------------------|-----------------------------------------|---------------------------------|
G|---------------------------------|-------------------------------4----4----|-4----4----4----4----4-----4-----|
D|-2----2----2----2----2-----2-----|-4----4----4----4----4----4----4----4----|-4----4----4----4----4-----4-----|
A|-2----2----2----2----2-----2-----|-4----4----4----4----4----4----2----2----|-2----2----2----2----2-----2-----|
E|-0----0----0----0----0-----0-----|-2----2----2----2----2----2--------------|---------------------------------|

E|-----------------------------------------|---------------------------------|-----------------------------------------|
B|-----------------------------------------|---------------------------------|-----------------------------------------|
G|-------------------------------4----4----|-4----4----4----4----4-----4-----|-------------------------------4----4----|
D|-4----4----4----4----4----4----4----4----|-4----4----4----4----4-----4-----|-4----4----4----4----4----4----4----4----|
A|-4----4----4----4----4----4----2----2----|-2----2----2----2----2-----2-----|-4----4----4----4----4----4----2----2----|
E|-2----2----2----2----2----2--------------|---------------------------------|-2----2----2----2----2----2--------------|

E|---------------------------------|-----------------------------------------|---------------------------------|
B|---------------------------------|----------------6----6----6--------------|---------------------------------|
G|-4----4----4----4----4-----4-----|-7----7----7----5----5----5--------------|---------------------------------|
D|-4----4----4----4----4-----4-----|-7----7----7----5----5----5----2----2----|-2----2----2----2----2-----2-----|
A|-2----2----2----2----2-----2-----|-5----5----5----0----0----0----2----2----|-2----2----2----2----2-----2-----|
E|---------------------------------|-------------------------------0----0----|-0----0----0----0----0-----0-----|

E|-----------------------------------------|-----------------------------------------|
B|-----------------------------------------|-----------------------------------------|
G|-------------------------------7----7----|-7----7----7----7----7----7----7----7----|
D|-4----4----4----4----4----4----7----7----|-7----7----7----7----7----7----7----7----|
A|-4----4----4----4----4----4----5----5----|-5----5----5----5----5----5----5----5----|
E|-2----2----2----2----2----2--------------|-----------------------------------------|

E|-----------------------------------------|-----------------------------------------|
B|-----------------------------------------|-----------------------------------------|
G|-----------------------------------------|-----------------------------------------|
D|-7----7----7----7----7----7----2----2----|-2----2----2----2----2----2----2----2----|
A|-7----7----7----7----7----7----2----2----|-2----2----2----2----2----2----2----2----|
E|-5----5----5----5----5----5----0----0----|-0----0----0----0----0----0----0----0----|

E|-----------------------------------------|-----------------------------------------|
B|-----------------------------------------|-----------------------------------------|
G|-------------------------------7----7----|-7----7----7----7----7----7----7----7----|
D|-4----4----4----4----4----4----7----7----|-7----7----7----7----7----7----7----7----|
A|-4----4----4----4----4----4----5----5----|-5----5----5----5----5----5----5----5----|
E|-2----2----2----2----2----2--------------|-----------------------------------------|

E|-----------------------------------------|-----------------------------------------|
B|-----------------------------------------|-----------------------------------------|
G|-----------------------------------------|-----------------------------------------|
D|-7----7----7----7----7----7----2----2----|-2----2----2----2----2----2----2----2----|
A|-7----7----7----7----7----7----2----2----|-2----2----2----2----2----2----2----2----|
E|-5----5----5----5----5----5----0----0----|-0----0----0----0----0----0----0----0----|

E|-----------------------------------------|-----------------------------------------|
B|-----------------------------------------|-----------------------------------------|
G|-------------------------------7----7----|-7----7----7----7----7----7----7----7----|
D|-4----4----4----4----4----4----7----7----|-7----7----7----7----7----7----7----7----|
A|-4----4----4----4----4----4----5----5----|-5----5----5----5----5----5----5----5----|
E|-2----2----2----2----2----2--------------|-----------------------------------------|

E|-----------------------------------------|-----------------------------------------|
B|-----------------------------------------|-----------------------------------------|
G|-----------------------------------------|-----------------------------------------|
D|-7----7----7----7----7----7----2----2----|-2----2----2----2----2----2----2----2----|
A|-7----7----7----7----7----7----2----2----|-2----2----2----2----2----2----2----2----|
E|-5----5----5----5----5----5----0----0----|-0----0----0----0----0----0----0----0----|

E|-----------------------------------------|-----------------------------------------|
B|-----------------------------------------|-----------------------------------------|
G|-------------------------------7----7----|-7----7----7----7----7----7----7----7----|
D|-4----4----4----4----4----4----7----7----|-7----7----7----7----7----7----7----7----|
A|-4----4----4----4----4----4----5----5----|-5----5----5----5----5----5----5----5----|
E|-2----2----2----2----2----2--------------|-----------------------------------------|

E|-----------------------------------------|-----------------------------------------|
B|-----------------------------------------|-----------------------------------------|
G|-----------------------------------------|-----------------------------------------|
D|-7----7----7----7----7----7----2----2----|-2----2----2----2----2----2----2----2----|
A|-7----7----7----7----7----7----2----2----|-2----2----2----2----2----2----2----2----|
E|-5----5----5----5----5----5----0----0----|-0----0----0----0----0----0----0----0----|

E|-----------------------------------------|---------------------------------|-----------------------------------------|
B|-----------------------------------------|---------------------------------|-----------------------------------------|
G|-------------------------------4----4----|-4----4----4----4----4-----4-----|-------------------------------4----4----|
D|-4----4----4----4----4----4----4----4----|-4----4----4----4----4-----4-----|-4----4----4----4----4----4----4----4----|
A|-4----4----4----4----4----4----2----2----|-2----2----2----2----2-----2-----|-4----4----4----4----4----4----2----2----|
E|-2----2----2----2----2----2--------------|---------------------------------|-2----2----2----2----2----2--------------|

E|---------------------------------|-----------------------------------------|---------------------------------|
B|---------------------------------|-----------------------------------------|---------------------------------|
G|-4----4----4----4----4-----4-----|-------------------------------4----4----|-4----4----4----4----4-----4-----|
D|-4----4----4----4----4-----4-----|-4----4----4----4----4----4----4----4----|-4----4----4----4----4-----4-----|
A|-2----2----2----2----2-----2-----|-4----4----4----4----4----4----2----2----|-2----2----2----2----2-----2-----|
E|---------------------------------|-2----2----2----2----2----2--------------|---------------------------------|

E|-------------------------|---------------------------------|-----------------------------------------|
B|-3-----------------5-----|-5----5----5----5----5-----5-----|-----------------------------------------|
G|-2------2----------4-----|-4----4----4----4----4-----4-----|-------------------------------4----4----|
D|-0------2----------2-----|-2----2----2----2----2-----2-----|-4----4----4----4----4----4----4----4----|
A|--------0----0-----2-----|-2----2----2----2----2-----2-----|-4----4----4----4----4----4----2----2----|
E|-------------------0-----|-0----0----0----0----0-----0-----|-2----2----2----2----2----2--------------|

E|---------------------------------|-----------------------------------------|---------------------------------|
B|---------------------------------|-----------------------------------------|---------------------------------|
G|-4----4----4----4----4-----4-----|-------------------------------4----4----|-4----4----4----4----4-----4-----|
D|-4----4----4----4----4-----4-----|-4----4----4----4----4----4----4----4----|-4----4----4----4----4-----4-----|
A|-2----2----2----2----2-----2-----|-4----4----4----4----4----4----2----2----|-2----2----2----2----2-----2-----|
E|---------------------------------|-2----2----2----2----2----2--------------|---------------------------------|

E|-----------------------------------------|---------------------------------|-------------------------|
B|-----------------------------------------|---------------------------------|-3-----------------5-----|
G|-------------------------------4----4----|-4----4----4----4----4-----4-----|-2------2----------4-----|
D|-4----4----4----4----4----4----4----4----|-4----4----4----4----4-----4-----|-0------2----------2-----|
A|-4----4----4----4----4----4----2----2----|-2----2----2----2----2-----2-----|--------0----0-----2-----|
E|-2----2----2----2----2----2--------------|---------------------------------|-------------------0-----|

E|---------------------------------|-----------------------------------------|-----------------------------------------|
B|-5----5----5----5----5-----5-----|-----------------------------------------|-----------------------------------------|
G|-4----4----4----4----4-----4-----|-2----2----2----2----2----2--------------|-----------------------------------------|
D|-2----2----2----2----2-----2-----|-2----2----2----2----2----2----2----2----|-----------------------------------------|
A|-2----2----2----2----2-----2-----|-0----0----0----0----0----0----2----2----|-2----2----2----2----2----2----2----2----|
E|-0----0----0----0----0-----0-----|-------------------------------0----0----|-0----0----0----0----0----0----0----0----|

E|-----------------------------------------|-----------------------------------------|
B|-----------------------------------------|-----------------------------------------|
G|-------------------------------7----7----|-7----7----7----7----7----7----7----7----|
D|-4----4----4----4----4----4----7----7----|-7----7----7----7----7----7----7----7----|
A|-4----4----4----4----4----4----5----5----|-5----5----5----5----5----5----5----5----|
E|-2----2----2----2----2----2--------------|-----------------------------------------|

E|-----------------------------------------|-----------------------------------------|
B|-----------------------------------------|-----------------------------------------|
G|-2----2----2----2----2----2----2----2----|-----------------------------------------|
D|-2----2----2----2----2----2----2----2----|-2----2----2----2----2----2----2----2----|
A|-0----0----0----0----0----0----0----0----|-2----2----2----2----2----2----2----2----|
E|-----------------------------------------|-0----0----0----0----0----0----0----0----|

E|-----------------------------------------|-----------------------------------------|
B|-----------------------------------------|-----------------------------------------|
G|-------------------------------7----7----|-7----7----7----7----7----7----7----7----|
D|-4----4----4----4----4----4----7----7----|-7----7----7----7----7----7----7----7----|
A|-4----4----4----4----4----4----5----5----|-5----5----5----5----5----5----5----5----|
E|-2----2----2----2----2----2--------------|-----------------------------------------|

E|-----------------------------------------|-----------------------------------------|
B|-----------------------------------------|-----------------------------------------|
G|-2----2----2----2----2----2--------------|-----------------------------------------|
D|-2----2----2----2----2----2----2----2----|-2----2----2----2----2----2----2----2----|
A|-0----0----0----0----0----0----2----2----|-2----2----2----2----2----2----2----2----|
E|-------------------------------0----0----|-0----0----0----0----0----0----0----0----|

E|-----------------------------------------|-----------------------------------------|
B|-----------------------------------------|-----------------------------------------|
G|-------------------------------7----7----|-7----7----7----7----7----7----7----7----|
D|-4----4----4----4----4----4----7----7----|-7----7----7----7----7----7----7----7----|
A|-4----4----4----4----4----4----5----5----|-5----5----5----5----5----5----5----5----|
E|-2----2----2----2----2----2--------------|-----------------------------------------|

E|-----------------------------------------|-----------------------------------------|
B|-----------------------------------------|-----------------------------------------|
G|-2----2----2----2----2----2----2----2----|-----------------------------------------|
D|-2----2----2----2----2----2----2----2----|-2----2----2----2----2----2----2----2----|
A|-0----0----0----0----0----0----0----0----|-2----2----2----2----2----2----2----2----|
E|-----------------------------------------|-0----0----0----0----0----0----0----0----|

E|-----------------------------------------|-----------------------------------------|
B|-----------------------------------------|-----------------------------------------|
G|-----------------------------------------|-----------------------------------------|
D|-4----4----4----4----4----4----4----4----|-4----4----4----4----4----4----4----4----|
A|-4----4----4----4----4----4----4----4----|-4----4----4----4----4----4----4----4----|
E|-2----2----2----2----2----2----2----2----|-2----2----2----2----2----2----2----2----|

E|-----------------------------------------|-----------------------------------------|
B|-----------------------------------------|-----------------------------------------|
G|-4----4----4----4----4----4----4----4----|-4----4----4----4----4----4----4----4----|
D|-4----4----4----4----4----4----4----4----|-4----4----4----4----4----4----4----4----|
A|-2----2----2----2----2----2----2----2----|-2----2----2----2----2----2----2----2----|
E|-----------------------------------------|-----------------------------------------|

E|-----------------------------------------|-----------------------------------------|
B|-----------------------------------------|-----------------------------------------|
G|-----------------------------------------|-----------------------------------------|
D|-4----4----4----4----4----4----4----4----|-4----4----4----4----4----4----4----4----|
A|-4----4----4----4----4----4----4----4----|-4----4----4----4----4----4----4----4----|
E|-2----2----2----2----2----2----2----2----|-2----2----2----2----2----2----2----2----|

E|-----------------------------------------|-----------------------------------------|
B|-----------------------------------------|-----------------------------------------|
G|-4----4----4----4----4----4----4----4----|-4----4----4----4----4----4----4----4----|
D|-4----4----4----4----4----4----4----4----|-4----4----4----4----4----4----4----4----|
A|-2----2----2----2----2----2----2----2----|-2----2----2----2----2----2----2----2----|
E|-----------------------------------------|-----------------------------------------|

E|-----------------------------------------|-----------------------------------------|
B|-----------------------------------------|-----------------------------------------|
G|-----------------------------------------|-----------------------------------------|
D|-4----4----4----4----4----4----4----4----|-4----4----4----4----4----4----4----4----|
A|-4----4----4----4----4----4----4----4----|-4----4----4----4----4----4----4----4----|
E|-2----2----2----2----2----2----2----2----|-2----2----2----2----2----2----2----2----|

E|-----------------------------------------|-----------------------------------------|
B|-----------------------------------------|-----------------------------------------|
G|-4----4----4----4----4----4----4----4----|-4----4----4----4----4----4----4----4----|
D|-4----4----4----4----4----4----4----4----|-4----4----4----4----4----4----4----4----|
A|-2----2----2----2----2----2----2----2----|-2----2----2----2----2----2----2----2----|
E|-----------------------------------------|-----------------------------------------|

E|-----------------------------------------|-----------------------------------------|
B|-----------------------------------------|-----------------------------------------|
G|-----------------------------------------|-----------------------------------------|
D|-4----4----4----4----4----4----4----4----|-4----4----4----4----4----4----4----4----|
A|-4----4----4----4----4----4----4----4----|-4----4----4----4----4----4----4----4----|
E|-2----2----2----2----2----2----2----2----|-2----2----2----2----2----2----2----2----|

E|-----------------------------------------|-----------------------------------------|
B|-----------------------------------------|-----------------------------------------|
G|-4----4----4----4----4----4----4----4----|-4----4----4----4----4----4----4----4----|
D|-4----4----4----4----4----4----4----4----|-4----4----4----4----4----4----4----4----|
A|-2----2----2----2----2----2----2----2----|-2----2----2----2----2----2----2----2----|
E|-----------------------------------------|-----------------------------------------|

E|-----------------------------------------|-----------------------------------------|
B|-----------------------------------------|-----------------------------------------|
G|-------------------------------7----7----|-7----7----7----7----7----7----7----7----|
D|-4----4----4----4----4----4----7----7----|-7----7----7----7----7----7----7----7----|
A|-4----4----4----4----4----4----5----5----|-5----5----5----5----5----5----5----5----|
E|-2----2----2----2----2----2--------------|-----------------------------------------|

E|-----------------------------------------|-----------------------------------------|
B|-----------------------------------------|-----------------------------------------|
G|-2----2----2----2----2----2--------------|-----------------------------------------|
D|-2----2----2----2----2----2----2----2----|-2----2----2----2----2----2----2----2----|
A|-0----0----0----0----0----0----2----2----|-2----2----2----2----2----2----2----2----|
E|-------------------------------0----0----|-0----0----0----0----0----0----0----0----|

E|-----------------------------------------|-----------------------------------------|
B|-----------------------------------------|-----------------------------------------|
G|-------------------------------7----7----|-7----7----7----7----7----7----7----7----|
D|-4----4----4----4----4----4----7----7----|-7----7----7----7----7----7----7----7----|
A|-4----4----4----4----4----4----5----5----|-5----5----5----5----5----5----5----5----|
E|-2----2----2----2----2----2--------------|-----------------------------------------|

E|-----------------------------------------|-----------------------------------------|
B|-----------------------------------------|-----------------------------------------|
G|-2----2----2----2----2----2----2----2----|-----------------------------------------|
D|-2----2----2----2----2----2----2----2----|-2----2----2----2----2----2----2----2----|
A|-0----0----0----0----0----0----0----0----|-2----2----2----2----2----2----2----2----|
E|-----------------------------------------|-0----0----0----0----0----0----0----0----|

E|-----------------------------------------|-----------------------------------------|
B|-----------------------------------------|-----------------------------------------|
G|-------------------------------7----7----|-7----7----7----7----7----7----7----7----|
D|-4----4----4----4----4----4----7----7----|-7----7----7----7----7----7----7----7----|
A|-4----4----4----4----4----4----5----5----|-5----5----5----5----5----5----5----5----|
E|-2----2----2----2----2----2--------------|-----------------------------------------|

E|-----------------------------------------|-----------------------------------------|
B|-----------------------------------------|-----------------------------------------|
G|-2----2----2----2----2----2--------------|-----------------------------------------|
D|-2----2----2----2----2----2----2----2----|-2----2----2----2----2----2----2----2----|
A|-0----0----0----0----0----0----2----2----|-2----2----2----2----2----2----2----2----|
E|-------------------------------0----0----|-0----0----0----0----0----0----0----0----|

E|-----------------------------------------|-----------------------------------------|
B|-----------------------------------------|-----------------------------------------|
G|-------------------------------7----7----|-7----7----7----7----7----7----7----7----|
D|-4----4----4----4----4----4----7----7----|-7----7----7----7----7----7----7----7----|
A|-4----4----4----4----4----4----5----5----|-5----5----5----5----5----5----5----5----|
E|-2----2----2----2----2----2--------------|-----------------------------------------|

E|-----------------------------------------|-----------------------------------------|
B|-----------------------------------------|-----------------------------------------|
G|-2----2----2----2----2----2----2----2----|-----------------------------------------|
D|-2----2----2----2----2----2----2----2----|-2----2----2----2----2----2----2----2----|
A|-0----0----0----0----0----0----0----0----|-2----2----2----2----2----2----2----2----|
E|-----------------------------------------|-0----0----0----0----0----0----0----0----|

E|-----------------------------------------|-----------------------------------------|
B|-----------------------------------------|-----------------------------------------|
G|-----------------------------------------|-----------------------------------------|
D|-4----4----4----4----4----4----4----4----|-4----4----4----4----4----4----4----4----|
A|-4----4----4----4----4----4----4----4----|-4----4----4----4----4----4----4----4----|
E|-2----2----2----2----2----2----2----2----|-2----2----2----2----2----2----2----2----|

E|-----------------------------------------|-----------------------------------------|
B|-----------------------------------------|-----------------------------------------|
G|-----------------------------------------|-----------------------------------------|
D|-2----2----2----2----2----2----2----2----|-2----2----2----2----2----2----2----2----|
A|-2----2----2----2----2----2----2----2----|-2----2----2----2----2----2----2----2----|
E|-0----0----0----0----0----0----0----0----|-0----0----0----0----0----0----0----0----|

E|-----------------------------------------|-----------------------------------------|
B|-----------------------------------------|-----------------------------------------|
G|-4----4----4----4----4----4----4----4----|-4----4----4----4----4----4----4----4----|
D|-4----4----4----4----4----4----4----4----|-4----4----4----4----4----4----4----4----|
A|-2----2----2----2----2----2----2----2----|-2----2----2----2----2----2----2----2----|
E|-----------------------------------------|-----------------------------------------|

E|-----------------------------------------|-----------------------------------------|
B|-----------------------------------------|-----------------------------------------|
G|-----------------------------------------|-7----7----7----7----4----4----4----4----|
D|-5----5----5----5----5----5----5----5----|-7----7----7----7----4----4----4----4----|
A|-5----5----5----5----5----5----5----5----|-5----5----5----5----2----2----2----2----|
E|-3----3----3----3----3----3----3----3----|-----------------------------------------|

E|-----------------------------------------|-----------------------------------------|
B|-----------------------------------------|-----------------------------------------|
G|-----------------------------------------|-----------------------------------------|
D|-4----4----4----4----4----4----4----4----|-4----4----4----4----4----4----4----4----|
A|-4----4----4----4----4----4----4----4----|-4----4----4----4----4----4----4----4----|
E|-2----2----2----2----2----2----2----2----|-2----2----2----2----2----2----2----2----|

E|-----------------------------------------|-----------------------------------------|
B|-----------------------------------------|-----------------------------------------|
G|-----------------------------------------|-----------------------------------------|
D|-2----2----2----2----2----2----2----2----|-2----2----2----2----2----2----2----2----|
A|-2----2----2----2----2----2----2----2----|-2----2----2----2----2----2----2----2----|
E|-0----0----0----0----0----0----0----0----|-0----0----0----0----0----0----0----0----|

E|-----------------------------------------|-----------------------------------------|
B|-----------------------------------------|-----------------------------------------|
G|-4----4----4----4----4----4----4----4----|-4----4----4----4----4----4----4----4----|
D|-4----4----4----4----4----4----4----4----|-4----4----4----4----4----4----4----4----|
A|-2----2----2----2----2----2----2----2----|-2----2----2----2----2----2----2----2----|
E|-----------------------------------------|-----------------------------------------|

E|-----------------------------------------|-----------------------------------------|
B|-----------------------------------------|-----------------------------------------|
G|-----------------------------------------|-7----7----7----7----4----4----4----4----|
D|-5----5----5----5----5----5----5----5----|-7----7----7----7----4----4----4----4----|
A|-5----5----5----5----5----5----5----5----|-5----5----5----5----2----2----2----2----|
E|-3----3----3----3----3----3----3----3----|-----------------------------------------|

E|-----------------------------------------|-----------------------------------------|
B|-----------------------------------------|-----------------------------------------|
G|-----------------------------------------|-----------------------------------------|
D|-4----4----4----4----4----4----4----4----|-4----4----4----4----4----4----4----4----|
A|-4----4----4----4----4----4----4----4----|-4----4----4----4----4----4----4----4----|
E|-2----2----2----2----2----2----2----2----|-2----2----2----2----2----2----2----2----|

E|-----------------------------------------|-----------------------------------------|
B|-----------------------------------------|-----------------------------------------|
G|-----------------------------------------|-----------------------------------------|
D|-2----2----2----2----2----2----2----2----|-2----2----2----2----2----2----2----2----|
A|-2----2----2----2----2----2----2----2----|-2----2----2----2----2----2----2----2----|
E|-0----0----0----0----0----0----0----0----|-0----0----0----0----0----0----0----0----|

E|-----------------------------------------|-----------------------------------------|
B|-----------------------------------------|-----------------------------------------|
G|-4----4----4----4----4----4----4----4----|-4----4----4----4----4----4----4----4----|
D|-4----4----4----4----4----4----4----4----|-4----4----4----4----4----4----4----4----|
A|-2----2----2----2----2----2----2----2----|-2----2----2----2----2----2----2----2----|
E|-----------------------------------------|-----------------------------------------|

E|-----------------------------------------|-----------------------------------------|
B|-----------------------------------------|-----------------------------------------|
G|-----------------------------------------|-7----7----7----7----4----4----4----4----|
D|-5----5----5----5----5----5----5----5----|-7----7----7----7----4----4----4----4----|
A|-5----5----5----5----5----5----5----5----|-5----5----5----5----2----2----2----2----|
E|-3----3----3----3----3----3----3----3----|-----------------------------------------|

E|-----------------------------------------|-----------------------------------------|
B|-----------------------------------------|-----------------------------------------|
G|-----------------------------------------|-----------------------------------------|
D|-4----4----4----4----4----4----4----4----|-4----4----4----4----4----4----4----4----|
A|-4----4----4----4----4----4----4----4----|-4----4----4----4----4----4----4----4----|
E|-2----2----2----2----2----2----2----2----|-2----2----2----2----2----2----2----2----|

E|-----------------------------------------|-----------------------------------------|
B|-----------------------------------------|-----------------------------------------|
G|-----------------------------------------|-----------------------------------------|
D|-2----2----2----2----2----2----2----2----|-2----2----2----2----2----2----2----2----|
A|-2----2----2----2----2----2----2----2----|-2----2----2----2----2----2----2----2----|
E|-0----0----0----0----0----0----0----0----|-0----0----0----0----0----0----0----0----|

E|-----------------------------------------|-----------------------------------------|
B|-----------------------------------------|-----------------------------------------|
G|-4----4----4----4----4----4----4----4----|-4----4----4----4----4----4----4----4----|
D|-4----4----4----4----4----4----4----4----|-4----4----4----4----4----4----4----4----|
A|-2----2----2----2----2----2----2----2----|-2----2----2----2----2----2----2----2----|
E|-----------------------------------------|-----------------------------------------|

E|-----------------------------------------|-----------------------------------------|
B|-----------------------------------------|-----------------------------------------|
G|-----------------------------------------|-----------------------------------------|
D|-5----5----5----5----5----5----5----5----|-----------0----0------------------------|
A|-5----5----5----5----5----5----5----5----|---------------------2----2--------------|
E|-3----3----3----3----3----3----3----3----|-3----3------------------------3----3----|

E|-----------------------------------------|-----------------------------------------|
B|-----------------------------------------|-----------------------------------------|
G|-----------------------------------------|-----------------------------------------|
D|-4----4----4----4----4----4----4----4----|-4----4----4----4----4----4----4----4----|
A|-4----4----4----4----4----4----4----4----|-4----4----4----4----4----4----4----4----|
E|-2----2----2----2----2----2----2----2----|-2----2----2----2----2----2----2----2----|

E|-----------------------------------------|-----------------------------------------|
B|-----------------------------------------|-----------------------------------------|
G|-----------------------------------------|-----------------------------------------|
D|-2----2----2----2----2----2----2----2----|-2----2----2----2----2----2----2----2----|
A|-2----2----2----2----2----2----2----2----|-2----2----2----2----2----2----2----2----|
E|-0----0----0----0----0----0----0----0----|-0----0----0----0----0----0----0----0----|

E|-----------------------------------------|-----------------------------------------|
B|-----------------------------------------|-----------------------------------------|
G|-4----4----4----4----4----4----4----4----|-4----4----4----4----4----4----4----4----|
D|-4----4----4----4----4----4----4----4----|-4----4----4----4----4----4----4----4----|
A|-2----2----2----2----2----2----2----2----|-2----2----2----2----2----2----2----2----|
E|-----------------------------------------|-----------------------------------------|

E|-----------------------------------------|-----------------------------------------|
B|-----------------------------------------|-----------------------------------------|
G|-----------------------------------------|-7----7----7----7----4----4----4----4----|
D|-5----5----5----5----5----5----5----5----|-7----7----7----7----4----4----4----4----|
A|-5----5----5----5----5----5----5----5----|-5----5----5----5----2----2----2----2----|
E|-3----3----3----3----3----3----3----3----|-----------------------------------------|

E|-----------------------------------------|-----------------------------------------|
B|-----------------------------------------|-----------------------------------------|
G|-----------------------------------------|-----------------------------------------|
D|-4----4----4----4----4----4----4----4----|-4----4----4----4----4----4----4----4----|
A|-4----4----4----4----4----4----4----4----|-4----4----4----4----4----4----4----4----|
E|-2----2----2----2----2----2----2----2----|-2----2----2----2----2----2----2----2----|

E|-----------------------------------------|-----------------------------------------|
B|-----------------------------------------|-----------------------------------------|
G|-----------------------------------------|-----------------------------------------|
D|-2----2----2----2----2----2----2----2----|-2----2----2----2----2----2----2----2----|
A|-2----2----2----2----2----2----2----2----|-2----2----2----2----2----2----2----2----|
E|-0----0----0----0----0----0----0----0----|-0----0----0----0----0----0----0----0----|

E|-----------------------------------------|-----------------------------------------|
B|-----------------------------------------|-----------------------------------------|
G|-4----4----4----4----4----4----4----4----|-4----4----4----4----4----4----4----4----|
D|-4----4----4----4----4----4----4----4----|-4----4----4----4----4----4----4----4----|
A|-2----2----2----2----2----2----2----2----|-2----2----2----2----2----2----2----2----|
E|-----------------------------------------|-----------------------------------------|

E|-----------------------------------------|-----------------------------------------|
B|-----------------------------------------|-----------------------------------------|
G|-----------------------------------------|-7----7----7----7----4----4----4----4----|
D|-5----5----5----5----5----5----5----5----|-7----7----7----7----4----4----4----4----|
A|-5----5----5----5----5----5----5----5----|-5----5----5----5----2----2----2----2----|
E|-3----3----3----3----3----3----3----3----|-----------------------------------------|

E|-----------0-------|-----------0-------|-----------0-------|-----------0-------|-----------0-------|
B|-----------0-------|-----------0-------|-----------0-------|-----------0-------|-----------0-------|
G|-----------2-------|-----------2-------|-----------2-------|-----------2-------|-----------2-------|
D|------4------------|-----------4-------|------4------------|-----------4-------|------4------------|
A|-------------------|------2------------|-------------------|------2------------|-------------------|
E|-2-----------------|-0-----------------|-2-----------------|-0-----------------|-2-----------------|

E|-----------0-------|-----------0-----0------------0------------|-----------0-----0-----------0----------------|
B|-----------0-------|-----------0-------------0--------0--------|-----------0-------------0-------0------------|
G|-----------2-------|-----------2---------2----------------2----|-----------2---------2---------------2--------|
D|-----------4-------|------4------------------------------------|-----------------------------------------4----|
A|------2------------|-------------------------------------------|------2---------------------------------------|
E|-0-----------------|-2-----------------------------------------|-0--------------------------------------------|

E|-----------0-----0------------0------------|-----------0-----0-----------0----------------|
B|-----------0-------------0--------0--------|-----------0-------------0-------0------------|
G|-----------2---------2----------------2----|-----------2---------2---------------2--------|
D|------4------------------------------------|-----------------------------------------4----|
A|-------------------------------------------|------2---------------------------------------|
E|-2-----------------------------------------|-0--------------------------------------------|

E|-----------0-----0------------0------------|-----------0-----0-----------0----------------|
B|-----------0-------------0--------0--------|-----------0-------------0-------0------------|
G|-----------2---------2----------------2----|-----------2---------2---------------2--------|
D|------4------------------------------------|-----------------------------------------4----|
A|-------------------------------------------|------2---------------------------------------|
E|-2-----------------------------------------|-0--------------------------------------------|

E|-----------0-----0------------0------------|-----------0-----0-----------0----------------|
B|-----------0-------------0--------0--------|-----------0-------------0-------0------------|
G|-----------2---------2----------------2----|-----------2---------2---------------2--------|
D|------4------------------------------------|-----------------------------------------4----|
A|-------------------------------------------|------2---------------------------------------|
E|-2-----------------------------------------|-0--------------------------------------------|

E|-----------0-----0------------0------------|-----------0-----0-----------0----------------|
B|-----------0-------------0--------0--------|-----------0-------------0-------0------------|
G|-----------2---------2----------------2----|-----------2---------2---------------2--------|
D|------4------------------------------------|-----------------------------------------4----|
A|-------------------------------------------|------2---------------------------------------|
E|-2-----------------------------------------|-0--------------------------------------------|

E|-----------0-------|-----------0-------|-----------0-------|-----------0-------|---------------------------------|
B|-----------0-------|-----------0-------|-----------0-------|-----------0-------|---------------------------------|
G|-----------2-------|-----------2-------|-----------2-------|-----------2-------|---------------------------------|
D|------4------------|-------------------|------4------------|-------------------|-4-----4-----4----4----4----4----|
A|-------------------|------2------------|-------------------|------2------------|-4-----4-----4----4----4----4----|
E|-0-----------------|-0-----------------|-0-----------------|-0-----------------|-2-----2-----2----2----2----2----|

E|-----------------------------------------|-------------------------------------|-----------------------------------------|
B|-----------------------------------------|-------------------------------------|-----------------------------------------|
G|-----------------------------------------|-------------------------------------|-----------------------------------------|
D|-4----4----4----4----7----7----7----7----|-2----2----2-----2----2----2----2----|-2----2----2----2----2----2----2----2----|
A|-4----4----4----4----7----7----7----7----|-2----2----2-----2----2----2----2----|-2----2----2----2----2----2----2----2----|
E|-2----2----2----2----5----5----5----5----|-0----0----0-----0----0----0----0----|-0----0----0----0----0----0----0----0----|

E|-----------------------------------------|---------------------------------|-----------------------------------------|
B|-----------------------------------------|---------------------------------|-----------------------------------------|
G|-----------------------------------------|---------------------------------|-----------------------------------------|
D|-2----2----2----2----2----2----2----2----|-4-----4-----4----4----4----4----|-4----4----4----4----7----7----7----7----|
A|-2----2----2----2----2----2----2----2----|-4-----4-----4----4----4----4----|-4----4----4----4----7----7----7----7----|
E|-0----0----0----0----0----0----0----0----|-2-----2-----2----2----2----2----|-2----2----2----2----5----5----5----5----|

E|-------------------------------------|-----------------------------------------|---------------------------------|
B|-------------------------------------|-----------------------------------------|---------------------------------|
G|-------------------------------------|-----------------------------------------|---------------------------------|
D|-2----2----2-----2----2----2----2----|-2----2----2----2----2----2----2----2----|-4-----4-----4----4----4----4----|
A|-2----2----2-----2----2----2----2----|-2----2----2----2----2----2----2----2----|-4-----4-----4----4----4----4----|
E|-0----0----0-----0----0----0----0----|-0----0----0----0----0----0----0----0----|-2-----2-----2----2----2----2----|

E|-----------------------------------------|-------------------------------------|-----------------------------------------|
B|-----------------------------------------|-------------------------------------|-----------------------------------------|
G|-----------------------------------------|-------------------------------------|-----------------------------------------|
D|-4----4----4----4----7----7----7----7----|-2----2----2-----2----2----2----2----|-2----2----2----2----2----2----2----2----|
A|-4----4----4----4----7----7----7----7----|-2----2----2-----2----2----2----2----|-2----2----2----2----2----2----2----2----|
E|-2----2----2----2----5----5----5----5----|-0----0----0-----0----0----0----0----|-0----0----0----0----0----0----0----0----|

E|---------------------------------|-----------------------------------------|-------------------------------------|
B|---------------------------------|-----------------------------------------|-------------------------------------|
G|---------------------------------|-----------------------------------------|-------------------------------------|
D|-4-----4-----4----4----4----4----|-4----4----4----4----7----7----7----7----|-2----2----2-----2----2----2----2----|
A|-4-----4-----4----4----4----4----|-4----4----4----4----7----7----7----7----|-2----2----2-----2----2----2----2----|
E|-2-----2-----2----2----2----2----|-2----2----2----2----5----5----5----5----|-0----0----0-----0----0----0----0----|

E|-----------------------------------------|---------------------------------|-----------------------------------------|
B|-----------------------------------------|---------------------------------|-----------------------------------------|
G|-----------------------------------------|---------------------------------|-----------------------------------------|
D|-2----2----2----2----2----2----2----2----|-4-----4-----4----4----4----4----|-4----4----4----4----7----7----7----7----|
A|-2----2----2----2----2----2----2----2----|-4-----4-----4----4----4----4----|-4----4----4----4----7----7----7----7----|
E|-0----0----0----0----0----0----0----0----|-2-----2-----2----2----2----2----|-2----2----2----2----5----5----5----5----|

E|-------------------------------------|-----------------------------------------|-----------------------------|
B|-------------------------------------|-----------------------------------------|-----------------------------|
G|-------------------------------------|-----------------------------------------|-----------------------------|
D|-2----2----2-----2----2----2----2----|-2----2----2----2----2----2----2----2----|-4-----4-----4-----4----4----|
A|-2----2----2-----2----2----2----2----|-2----2----2----2----2----2----2----2----|-4-----4-----4-----4----4----|
E|-0----0----0-----0----0----0----0----|-0----0----0----0----0----0----0----0----|-2-----2-----2-----2----2----|

E|-------------------------------------|-----------------------------|-------------------------------------|
B|-------------------------------------|-----------------------------|-------------------------------------|
G|-------------------------------------|-----------------------------|-------------------------------------|
D|-4----4----4-----4----4----4----4----|-2-----2-----2-----2----2----|-2----2----2-----2----2----2----2----|
A|-4----4----4-----4----4----4----4----|-2-----2-----2-----2----2----|-2----2----2-----2----2----2----2----|
E|-2----2----2-----2----2----2----2----|-0-----0-----0-----0----0----|-0----0----0-----0----0----0----0----|

E|---------|---------|---------|---------|---------|---------|---------|---------|---------|
B|---------|---------|---------|---------|---------|---------|---------|---------|---------|
G|-%-------|-%-------|-%-------|-%-------|-%-------|-%-------|-%-------|-%-------|-%-------|
D|-%-------|-%-------|-%-------|-%-------|-%-------|-%-------|-%-------|-%-------|-%-------|
A|---------|---------|---------|---------|---------|---------|---------|---------|---------|
E|---------|---------|---------|---------|---------|---------|---------|---------|---------|

E|---------|---------|---------|---------|---------|
B|---------|---------|---------|---------|---------|
G|-%-------|-%-------|-%-------|-%-------|-%-------|
D|-%-------|-%-------|-%-------|-%-------|-%-------|
A|---------|---------|---------|---------|---------|
E|---------|---------|---------|---------|---------|
Iron Maiden - The Thin Line Between Love And Hate
Iron Maiden - The Thin Line Between Love And Hate.gp3