Iron Maiden - The Trooper

Iron Maiden



Title: The Trooper
Album: Peace of mind
Artist: Iron Maiden
Author: Steve Harris

Track 1: Dave (Guitar 1)
E|-----------------------------------------------|--------------------------------------------|
B|-----------------------------------------------|--------------------------------------------|
G|-----------------------------------------------|--------------------------------------------|
D|-----------------------------------------------|-----------------------------5--------------|
A|-7----7----7---5--------5----5----5---3--------|-3----3----3---2--------5---------5----7----|
E|-------------------7----------------------5----|-------------------3------------------------|

E|-----------------------------------------------|--------------------------------------------|
B|-----------------------------------------------|--------------------------------------------|
G|-----------------------------------------------|--------------------------------------------|
D|-----------------------------------------------|-----------------------------5--------------|
A|-7----7----7---5--------5----5----5---3--------|-3----3----3---2--------5---------5----7----|
E|-------------------7----------------------5----|-------------------3------------------------|

E|-----------------------------------------------|--------------------------------------------|
B|-----------------------------------------------|--------------------------------------------|
G|-----------------------------------------------|--------------------------------------------|
D|-----------------------------------------------|-----------------------------5--------------|
A|-7----7----7---5--------5----5----5---3--------|-3----3----3---2--------5---------5----7----|
E|-------------------7----------------------5----|-------------------3------------------------|

E|-----------------------------------------------|--------------------------------------------|
B|-----------------------------------------------|--------------------------------------------|
G|-----------------------------------------------|--------------------------------------------|
D|-----------------------------------------------|-----------------------------5--------------|
A|-7----7----7---5--------5----5----5---3--------|-3----3----3---2--------5---------5----7----|
E|-------------------7----------------------5----|-------------------3------------------------|

E|-----------------------------------7---------------------------------|-------------------------------------|
B|------8----7---8---7---8---7------------8----7---8---7---8--7--8--8--|-8--------------------8--------------|
G|-------------------------------%-------------------------------------|------9----9-----7---------7----9----|
D|-------------------------------%-------------------------------------|-------------------------------------|
A|-7-------------------------------------------------------------------|-------------------------------------|
E|---------------------------------------------------------------------|-------------------------------------|

E|-----------------------------------7---------------------------------|-------------------------------------|
B|------8----7---8---7---8---7------------8----7---8---7---8--7--8--8--|-8--------------------8--------------|
G|-9-----------------------------%-------------------------------------|------9----9-----7---------7----9----|
D|-------------------------------%-------------------------------------|-------------------------------------|
A|---------------------------------------------------------------------|-------------------------------------|
E|---------------------------------------------------------------------|-------------------------------------|

E|-----------------------------------7---------------------------------|-------------------------------------|
B|------8----7---8---7---8---7------------8----7---8---7---8--7--8--8--|-8--------------------8--------------|
G|-9-----------------------------%-------------------------------------|------9----9-----7---------7----9----|
D|-------------------------------%-------------------------------------|-------------------------------------|
A|---------------------------------------------------------------------|-------------------------------------|
E|---------------------------------------------------------------------|-------------------------------------|

E|-----------------------------------7---------------------------------|-------------------------------------|
B|------8----7---8---7---8---7------------8----7---8---7---8--7--8--8--|-8--------------------8--------------|
G|-9-----------------------------%-------------------------------------|------9----9-----7---------7----9----|
D|-------------------------------%-------------------------------------|-------------------------------------|
A|---------------------------------------------------------------------|-------------------------------------|
E|---------------------------------------------------------------------|-------------------------------------|

E|-----------------------------------7---------------------------------|-------------------------------------|
B|------8----7---8---7---8---7------------8----7---8---7---8--7--8--8--|-8--------------------8--------------|
G|-9-----------------------------%-------------------------------------|------9----9-----7---------7----9----|
D|-------------------------------%-------------------------------------|-------------------------------------|
A|---------------------------------------------------------------------|-------------------------------------|
E|---------------------------------------------------------------------|-------------------------------------|

E|-----------------------------------7---------------------------------|-------------------------------------|
B|------8----7---8---7---8---7------------8----7---8---7---8--7--8--8--|-8--------------------8--------------|
G|-9-----------------------------%-------------------------------------|------9----9-----7---------7----9----|
D|-------------------------------%-------------------------------------|-------------------------------------|
A|---------------------------------------------------------------------|-------------------------------------|
E|---------------------------------------------------------------------|-------------------------------------|

E|-----------------------------------7---------------------------------|-------------------------------------|
B|------8----7---8---7---8---7------------8----7---8---7---8--7--8--8--|-8--------------------8--------------|
G|-9-----------------------------%-------------------------------------|------9----9-----7---------7----9----|
D|-------------------------------%-------------------------------------|-------------------------------------|
A|---------------------------------------------------------------------|-------------------------------------|
E|---------------------------------------------------------------------|-------------------------------------|

E|-----------------------------------7---------------------------------|-------------------------------------|
B|------8----7---8---7---8---7------------8----7---8---7---8--7--8--8--|-8-----------------------------------|
G|-9-----------------------------%-------------------------------------|------9----9----------7--------------|
D|-------------------------------%-------------------------------------|-----------------7----5----7----9----|
A|---------------------------------------------------------------------|-----------------5---------5----7----|
E|---------------------------------------------------------------------|-------------------------------------|

E|------------------------|----------------------------|------------------------|----------------------------|
B|------------------------|----------------------------|------------------------|----------------------------|
G|------%------%-----%----|-%--------------------------|------%------%-----%----|-%--------------------------|
D|-9----%------%-----%----|-%-----------5---------9----|-9----%------%-----%----|-%-----------5---------5----|
A|-7----------------------|--------5---------5----7----|-7----------------------|--------5---------5----3----|
E|------------------------|----------------------------|------------------------|----------------------------|

E|------------------------|----------------------------|------------------------|----------------------------|
B|------------------------|----------------------------|------------------------|----------------------------|
G|------%------%-----%----|-%--------------------------|------%------%-----%----|-%--------------------------|
D|-5----%------%-----%----|-%-----------5---------9----|-9----%------%-----%----|-%-----------5---------9----|
A|-3----------------------|--------5---------5----7----|-7----------------------|--------5---------5----7----|
E|------------------------|----------------------------|------------------------|----------------------------|

E|-----------------------------------------------------|-----------------------------------------------|
B|-----------------------------------------------------|-----------------------------------------------|
G|-----------------------------------------------------|-----------------------------------------------|
D|-9------------9------------9------------9------------|-9------------9-----------------5---------9----|
A|-7----7---7---7----7---7---7----7---7---7----7---7---|-7----7---7---7----7---7---5---------5----7----|
E|-----------------------------------------------------|-----------------------------------------------|

E|-----------------------------------------------------|-----------------------------------------------|
B|-----------------------------------------------------|-----------------------------------------------|
G|-----------------------------------------------------|-----------------------------------------------|
D|-9------------9------------9------------9------------|-9------------9-----------------5---------5----|
A|-7----7---7---7----7---7---7----7---7---7----7---7---|-7----7---7---7----7---7---5---------5----3----|
E|-----------------------------------------------------|-----------------------------------------------|

E|-----------------------------------------------------|-----------------------------------------------|
B|-----------------------------------------------------|-----------------------------------------------|
G|-----------------------------------------------------|-----------------------------------------------|
D|-5------------5------------5------------5------------|-5------------5-----------------5---------9----|
A|-3----3---3---3----3---3---3----3---3---3----3---3---|-3----3---3---3----3---3---5---------5----7----|
E|-----------------------------------------------------|-----------------------------------------------|

E|-----------------------------------------------------|-----------------------------------------------|
B|-----------------------------------------------------|-----------------------------------------------|
G|-----------------------------------------------------|-----------------------------------------------|
D|-9------------9------------9------------9------------|-9------------9-----------------5---------7----|
A|-7----7---7---7----7---7---7----7---7---7----7---7---|-7----7---7---7----7---7---5---------5----5----|
E|-----------------------------------------------------|-----------------------------------------------|

E|---------|----------------------|---------|-------------------|---------|----------------------|
B|---------|----------------------|---------|-------------------|---------|----------------------|
G|---------|-------------%--------|---------|-------------------|---------|-------------%--------|
D|-7-------|-7-------7---%---9----|-9-------|-9-------9----7----|-7-------|-7-------7---%---9----|
A|-5-------|-5-------5-------7----|-7-------|-7-------7----5----|-5-------|-5-------5-------7----|
E|---------|----------------------|---------|-------------------|---------|----------------------|

E|---------|----------------------------|-----------------------------------7---------------------------------|
B|---------|----------------------------|------8----7---8---7---8---7------------8----7---8---7---8--7--8--8--|
G|---------|-%--------------------------|-------------------------------%-------------------------------------|
D|-9-------|-%-----------5---------9----|-9-----------------------------%-------------------------------------|
A|-7-------|--------5---------5----7----|-7-------------------------------------------------------------------|
E|---------|----------------------------|---------------------------------------------------------------------|

E|-------------------------------------|-----------------------------------7---------------------------------|
B|-8--------------------8--------------|------8----7---8---7---8---7------------8----7---8---7---8--7--8--8--|
G|------9----9-----7---------7----9----|-9-----------------------------%-------------------------------------|
D|-------------------------------------|-------------------------------%-------------------------------------|
A|-------------------------------------|---------------------------------------------------------------------|
E|-------------------------------------|---------------------------------------------------------------------|

E|-------------------------------------|-----------------------------------7---------------------------------|
B|-8--------------------8--------------|------8----7---8---7---8---7------------8----7---8---7---8--7--8--8--|
G|------9----9-----7---------7----9----|-9-----------------------------%-------------------------------------|
D|-------------------------------------|-------------------------------%-------------------------------------|
A|-------------------------------------|---------------------------------------------------------------------|
E|-------------------------------------|---------------------------------------------------------------------|

E|-------------------------------------|-----------------------------------7---------------------------------|
B|-8--------------------8--------------|------8----7---8---7---8---7------------8----7---8---7---8--7--8--8--|
G|------9----9-----7---------7----9----|-9-----------------------------%-------------------------------------|
D|-------------------------------------|-------------------------------%-------------------------------------|
A|-------------------------------------|---------------------------------------------------------------------|
E|-------------------------------------|---------------------------------------------------------------------|

E|-------------------------------------|-----------------------------------7---------------------------------|
B|-8--------------------8--------------|------8----7---8---7---8---7------------8----7---8---7---8--7--8--8--|
G|------9----9-----7---------7----9----|-9-----------------------------%-------------------------------------|
D|-------------------------------------|-------------------------------%-------------------------------------|
A|-------------------------------------|---------------------------------------------------------------------|
E|-------------------------------------|---------------------------------------------------------------------|

E|-------------------------------------|-----------------------------------7---------------------------------|
B|-8--------------------8--------------|------8----7---8---7---8---7------------8----7---8---7---8--7--8--8--|
G|------9----9-----7---------7----9----|-9-----------------------------%-------------------------------------|
D|-------------------------------------|-------------------------------%-------------------------------------|
A|-------------------------------------|---------------------------------------------------------------------|
E|-------------------------------------|---------------------------------------------------------------------|

E|-------------------------------------|-----------------------------------7---------------------------------|
B|-8--------------------8--------------|------8----7---8---7---8---7------------8----7---8---7---8--7--8--8--|
G|------9----9-----7---------7----9----|-9-----------------------------%-------------------------------------|
D|-------------------------------------|-------------------------------%-------------------------------------|
A|-------------------------------------|---------------------------------------------------------------------|
E|-------------------------------------|---------------------------------------------------------------------|

E|-------------------------------------|-----------------------------------7---------------------------------|
B|-8--------------------8--------------|------8----7---8---7---8---7------------8----7---8---7---8--7--8--8--|
G|------9----9-----7---------7----9----|-9-----------------------------%-------------------------------------|
D|-------------------------------------|-------------------------------%-------------------------------------|
A|-------------------------------------|---------------------------------------------------------------------|
E|-------------------------------------|---------------------------------------------------------------------|

E|-------------------------------------|-----------------------------------------------------|
B|-8--------------------8--------------|-----------------------------------------------------|
G|------9----9-----7---------7----9----|-9---------------------------------------------------|
D|-------------------------------------|--------------9------------9------------9------------|
A|-------------------------------------|------7---7---7----7---7---7----7---7---7----7---7---|
E|-------------------------------------|-----------------------------------------------------|

E|-----------------------------------------------|-----------------------------------------------------|
B|-----------------------------------------------|-----------------------------------------------------|
G|-----------------------------------------------|-----------------------------------------------------|
D|-9------------9-----------------5---------9----|-9------------9------------9------------9------------|
A|-7----7---7---7----7---7---5---------5----7----|-7----7---7---7----7---7---7----7---7---7----7---7---|
E|-----------------------------------------------|-----------------------------------------------------|

E|-----------------------------------------------|-----------------------------------------------------|
B|-----------------------------------------------|-----------------------------------------------------|
G|-----------------------------------------------|-----------------------------------------------------|
D|-9------------9-----------------5---------5----|-5------------5------------5------------5------------|
A|-7----7---7---7----7---7---5---------5----3----|-3----3---3---3----3---3---3----3---3---3----3---3---|
E|-----------------------------------------------|-----------------------------------------------------|

E|-----------------------------------------------|-----------------------------------------------------|
B|-----------------------------------------------|-----------------------------------------------------|
G|-----------------------------------------------|-----------------------------------------------------|
D|-5------------5-----------------5---------9----|-9------------9------------9------------9------------|
A|-3----3---3---3----3---3---5---------5----7----|-7----7---7---7----7---7---7----7---7---7----7---7---|
E|-----------------------------------------------|-----------------------------------------------------|

E|-----------------------------------------------|-----------------------------------------------------|
B|-----------------------------------------------|-----------------------------------------------------|
G|-----------------------------------------------|-----------------------------------------------------|
D|-9------------9-----------------5---------9----|-9------------9------------9------------9------------|
A|-7----7---7---7----7---7---5---------5----7----|-7----7---7---7----7---7---7----7---7---7----7---7---|
E|-----------------------------------------------|-----------------------------------------------------|

E|-----------------------------------------------|-----------------------------------------------------|
B|-----------------------------------------------|-----------------------------------------------------|
G|-----------------------------------------------|-----------------------------------------------------|
D|-9------------9-----------------5---------9----|-9------------9------------9------------9------------|
A|-7----7---7---7----7---7---5---------5----7----|-7----7---7---7----7---7---7----7---7---7----7---7---|
E|-----------------------------------------------|-----------------------------------------------------|

E|-----------------------------------------------|-----------------------------------------------------|
B|-----------------------------------------------|-----------------------------------------------------|
G|-----------------------------------------------|-----------------------------------------------------|
D|-9------------9-----------------5---------5----|-5------------5------------5------------5------------|
A|-7----7---7---7----7---7---5---------5----3----|-3----3---3---3----3---3---3----3---3---3----3---3---|
E|-----------------------------------------------|-----------------------------------------------------|

E|-----------------------------------------------|-----------------------------------------------------|
B|-----------------------------------------------|-----------------------------------------------------|
G|-----------------------------------------------|-----------------------------------------------------|
D|-5------------5-----------------5---------9----|-9------------9------------9------------9------------|
A|-3----3---3---3----3---3---5---------5----7----|-7----7---7---7----7---7---7----7---7---7----7---7---|
E|-----------------------------------------------|-----------------------------------------------------|

E|-----------------------------------------------|---------|----------------------|
B|-----------------------------------------------|---------|----------------------|
G|-----------------------------------------------|---------|-------------%--------|
D|-9------------9-----------------5---------7----|-7-------|-7-------7---%---9----|
A|-7----7---7---7----7---7---5---------5----5----|-5-------|-5-------5-------7----|
E|-----------------------------------------------|---------|----------------------|

E|-----------------------------------------------------|--------------------------------------------------|
B|-----------------------------------------------------|--------------------------------------------------|
G|-----------------------------------------------------|--------------------------------------------------|
D|-9----9---9---9----9---9---9----9---9---9----9---9---|-9----9---9---9----9---9---9----9---9---9----7----|
A|-7----7---7---7----7---7---7----7---7---7----7---7---|-7----7---7---7----7---7---7----7---7---7----5----|
E|-----------------------------------------------------|--------------------------------------------------|

E|---------|----------------------|-----------------------------------------------------|
B|---------|----------------------|-----------------------------------------------------|
G|---------|-------------%--------|------%---%---%----%---%---%----%---%---%----%---%---|
D|-7-------|-7-------7---%---9----|-9----%---%---%----%---%---%----%---%---%----%---%---|
A|-5-------|-5-------5-------7----|-7---------------------------------------------------|
E|---------|----------------------|-----------------------------------------------------|

E|-----------------------------------------------|-------------------|-------------------|
B|-----------------------------------------------|-------------------|-------------------|
G|-%----%---%---%----%---%-----------------------|---------------%---|---------------%---|
D|-%----%---%---%----%---%--------5---------9----|-9-------9-----%---|-7-------7-----%---|
A|---------------------------5---------5----7----|-7-------7---------|-5-------5---------|
E|-----------------------------------------------|-------------------|-------------------|

E|-------------------|-------------------------------|-------------------|-------------------|
B|-------------------|-------------------------------|-------------------|-------------------|
G|---------------%---|------------%--------------%---|---------------%---|---------------%---|
D|-4-------4-----%---|-5------5---%---7------7---%---|-9-------9-----%---|-7-------7-----%---|
A|-2-------2---------|-3------3-------5------5-------|-7-------7---------|-5-------5---------|
E|-------------------|-------------------------------|-------------------|-------------------|

E|-------------------|-------------------------------|-------------------|-------------------|
B|-------------------|-------------------------------|-------------------|-------------------|
G|---------------%---|------------%--------------%---|---------------%---|---------------%---|
D|-4-------4-----%---|-5------5---%---7------7---%---|-9-------9-----%---|-7-------7-----%---|
A|-2-------2---------|-3------3-------5------5-------|-7-------7---------|-5-------5---------|
E|-------------------|-------------------------------|-------------------|-------------------|

E|-------------------|-------------------------------|-------------------|-------------------|
B|-------------------|-------------------------------|-------------------|-------------------|
G|---------------%---|------------%--------------%---|---------------%---|---------------%---|
D|-4-------4-----%---|-5------5---%---7------7---%---|-9-------9-----%---|-7-------7-----%---|
A|-2-------2---------|-3------3-------5------5-------|-7-------7---------|-5-------5---------|
E|-------------------|-------------------------------|-------------------|-------------------|

E|-------------------|-------------------------------|-0---3---5---8---5---8---5---8---5---8---5-----------------------------------------------|
B|-------------------|-------------------------------|---------------------------------------------8---5---8---5---8---5---8---5---8---5---8---|
G|---------------%---|------------%--------------%---|-----------------------------------------------------------------------------------------|
D|-4-------4-----%---|-5------5---%---7------7---%---|-----------------------------------------------------------------------------------------|
A|-2-------2---------|-3------3-------5------5-------|-----------------------------------------------------------------------------------------|
E|-------------------|-------------------------------|-----------------------------------------------------------------------------------------|

E|----------------------------|-----------------------------------------|---------|
B|-3-----------3----2----1----|------2----1-----------------------------|---------|
G|--------%-------------------|-2--------------2------------------------|---------|
D|--------%-------------------|---------------------1-------------------|---------|
A|----------------------------|--------------------------5----3---------|---------|
E|----------------------------|------------------------------------5----|-5-------|

E|-------------------------------------------------5---7---5---7---5---7---5---7---5---7---5---7---|
B|-5---6---5---6---5---6---5---6---5---6---5---6---------------------------------------------------|
G|-------------------------------------------------------------------------------------------------|
D|-------------------------------------------------------------------------------------------------|
A|-------------------------------------------------------------------------------------------------|
E|-------------------------------------------------------------------------------------------------|

E|-------------------------5---7---5---7---5---7---7---8---7---8---7---8---8---10--8---10--8---10--|
B|-5---6---5---6---5---6---------------------------------------------------------------------------|
G|-------------------------------------------------------------------------------------------------|
D|-------------------------------------------------------------------------------------------------|
A|-------------------------------------------------------------------------------------------------|
E|-------------------------------------------------------------------------------------------------|

E|-10----10----10-----10--8---|-10------------|-15--12--12--10--12--10--8---7---8----7------|
B|----------------------------|---------15----|---------------------------------------------|
G|----------------------------|---------------|---------------------------------------------|
D|----------------------------|---------------|---------------------------------------------|
A|----------------------------|---------------|---------------------------------------------|
E|----------------------------|---------------|---------------------------------------------|

E|------10--12--10-------------------|---------|---------|-------------17-----12---|
B|-10---------------13---------------|---------|---------|--------15---------------|
G|-----------------------12-----12---|-12------|-12------|-12----------------------|
D|-----------------------------------|---------|---------|-------------------------|
A|-----------------------------------|---------|---------|-------------------------|
E|-----------------------------------|---------|---------|-------------------------|

E|-20-----17---15----19---22---|-22---22---20---19---17--19---------|-12------------------------------|
B|-----------------------------|-----------------------------20-----|------15---13---13---------------|
G|-----------------------------|------------------------------------|---------------------14---14-----|
D|-----------------------------|------------------------------------|---------------------------------|
A|-----------------------------|------------------------------------|---------------------------------|
E|-----------------------------|------------------------------------|---------------------------------|

E|-----------------------------------7---------------------------------|-------------------------------------|
B|------8----7---8---7---8---7------------8----7---8---7---8--7--8--8--|-8--------------------8--------------|
G|-14----------------------------%-------------------------------------|------9----9-----7---------7----9----|
D|-------------------------------%-------------------------------------|-------------------------------------|
A|---------------------------------------------------------------------|-------------------------------------|
E|---------------------------------------------------------------------|-------------------------------------|

E|-----------------------------------7---------------------------------|-------------------------------------|
B|------8----7---8---7---8---7------------8----7---8---7---8--7--8--8--|-8--------------------8--------------|
G|-9-----------------------------%-------------------------------------|------9----9-----7---------7----9----|
D|-------------------------------%-------------------------------------|-------------------------------------|
A|---------------------------------------------------------------------|-------------------------------------|
E|---------------------------------------------------------------------|-------------------------------------|

E|-----------------------------------7---------------------------------|-------------------------------------|
B|------8----7---8---7---8---7------------8----7---8---7---8--7--8--8--|-8--------------------8--------------|
G|-9-----------------------------%-------------------------------------|------9----9-----7---------7----9----|
D|-------------------------------%-------------------------------------|-------------------------------------|
A|---------------------------------------------------------------------|-------------------------------------|
E|---------------------------------------------------------------------|-------------------------------------|

E|-----------------------------------7---------------------------------|-------------------------------------|
B|------8----7---8---7---8---7------------8----7---8---7---8--7--8--8--|-8--------------------8--------------|
G|-9-----------------------------%-------------------------------------|------9----9-----7---------7----9----|
D|-------------------------------%-------------------------------------|-------------------------------------|
A|---------------------------------------------------------------------|-------------------------------------|
E|---------------------------------------------------------------------|-------------------------------------|

E|-----------------------------------7---------------------------------|-------------------------------------|
B|------8----7---8---7---8---7------------8----7---8---7---8--7--8--8--|-8--------------------8--------------|
G|-9-----------------------------%-------------------------------------|------9----9-----7---------7----9----|
D|-------------------------------%-------------------------------------|-------------------------------------|
A|---------------------------------------------------------------------|-------------------------------------|
E|---------------------------------------------------------------------|-------------------------------------|

E|-----------------------------------7---------------------------------|-------------------------------------|
B|------8----7---8---7---8---7------------8----7---8---7---8--7--8--8--|-8--------------------8--------------|
G|-9-----------------------------%-------------------------------------|------9----9-----7---------7----9----|
D|-------------------------------%-------------------------------------|-------------------------------------|
A|---------------------------------------------------------------------|-------------------------------------|
E|---------------------------------------------------------------------|-------------------------------------|

E|-----------------------------------7---------------------------------|-------------------------------------|
B|------8----7---8---7---8---7------------8----7---8---7---8--7--8--8--|-8--------------------8--------------|
G|-9-----------------------------%-------------------------------------|------9----9-----7---------7----9----|
D|-------------------------------%-------------------------------------|-------------------------------------|
A|---------------------------------------------------------------------|-------------------------------------|
E|---------------------------------------------------------------------|-------------------------------------|

E|-----------------------------------7---------------------------------|-------------------------------------|
B|------8----7---8---7---8---7------------8----7---8---7---8--7--8--8--|-8--------------------8--------------|
G|-9-----------------------------%-------------------------------------|------9----9-----7---------7----9----|
D|-------------------------------%-------------------------------------|-------------------------------------|
A|---------------------------------------------------------------------|-------------------------------------|
E|---------------------------------------------------------------------|-------------------------------------|

E|-----------------------------------------------------|-----------------------------------------------|
B|-----------------------------------------------------|-----------------------------------------------|
G|-9---------------------------------------------------|-----------------------------------------------|
D|--------------9------------9------------9------------|-9------------9-----------------5---------9----|
A|------7---7---7----7---7---7----7---7---7----7---7---|-7----7---7---7----7---7---5---------5----7----|
E|-----------------------------------------------------|-----------------------------------------------|

E|-----------------------------------------------------|-----------------------------------------------|
B|-----------------------------------------------------|-----------------------------------------------|
G|-----------------------------------------------------|-----------------------------------------------|
D|-9------------9------------9------------9------------|-9------------9-----------------5---------5----|
A|-7----7---7---7----7---7---7----7---7---7----7---7---|-7----7---7---7----7---7---5---------5----3----|
E|-----------------------------------------------------|-----------------------------------------------|

E|-----------------------------------------------------|-----------------------------------------------|
B|-----------------------------------------------------|-----------------------------------------------|
G|-----------------------------------------------------|-----------------------------------------------|
D|-5------------5------------5------------5------------|-5------------5-----------------5---------9----|
A|-3----3---3---3----3---3---3----3---3---3----3---3---|-3----3---3---3----3---3---5---------5----7----|
E|-----------------------------------------------------|-----------------------------------------------|

E|-----------------------------------------------------|-----------------------------------------------|
B|-----------------------------------------------------|-----------------------------------------------|
G|-----------------------------------------------------|-----------------------------------------------|
D|-9------------9------------9------------9------------|-9------------9-----------------5---------9----|
A|-7----7---7---7----7---7---7----7---7---7----7---7---|-7----7---7---7----7---7---5---------5----7----|
E|-----------------------------------------------------|-----------------------------------------------|

E|-----------------------------------------------------|-----------------------------------------------|
B|-----------------------------------------------------|-----------------------------------------------|
G|-----------------------------------------------------|-----------------------------------------------|
D|-9------------9------------9------------9------------|-9------------9-----------------5---------9----|
A|-7----7---7---7----7---7---7----7---7---7----7---7---|-7----7---7---7----7---7---5---------5----7----|
E|-----------------------------------------------------|-----------------------------------------------|

E|-----------------------------------------------------|-----------------------------------------------|
B|-----------------------------------------------------|-----------------------------------------------|
G|-----------------------------------------------------|-----------------------------------------------|
D|-9------------9------------9------------9------------|-9------------9-----------------5---------5----|
A|-7----7---7---7----7---7---7----7---7---7----7---7---|-7----7---7---7----7---7---5---------5----3----|
E|-----------------------------------------------------|-----------------------------------------------|

E|-----------------------------------------------------|-----------------------------------------------|
B|-----------------------------------------------------|-----------------------------------------------|
G|-----------------------------------------------------|-----------------------------------------------|
D|-5------------5------------5------------5------------|-5------------5-----------------5---------9----|
A|-3----3---3---3----3---3---3----3---3---3----3---3---|-3----3---3---3----3---3---5---------5----7----|
E|-----------------------------------------------------|-----------------------------------------------|

E|-----------------------------------------------------|-----------------------------------------------|
B|-----------------------------------------------------|-----------------------------------------------|
G|-----------------------------------------------------|-----------------------------------------------|
D|-9------------9------------9------------9------------|-9------------9-----------------5---------7----|
A|-7----7---7---7----7---7---7----7---7---7----7---7---|-7----7---7---7----7---7---5---------5----5----|
E|-----------------------------------------------------|-----------------------------------------------|

E|---------|----------------------|-----------------------------------------------------|
B|---------|----------------------|-----------------------------------------------------|
G|---------|-------------%--------|-----------------------------------------------------|
D|-7-------|-7-------7---%---9----|-9----9---9---9----9---9---9----9---9---9----9---9---|
A|-5-------|-5-------5-------7----|-7----7---7---7----7---7---7----7---7---7----7---7---|
E|---------|----------------------|-----------------------------------------------------|

E|--------------------------------------------------|---------|----------------------|
B|--------------------------------------------------|---------|----------------------|
G|--------------------------------------------------|---------|-------------%--------|
D|-9----9---9---9----9---9---9----9---9---9----7----|-7-------|-7-------7---%---9----|
A|-7----7---7---7----7---7---7----7---7---7----5----|-5-------|-5-------5-------7----|
E|--------------------------------------------------|---------|----------------------|

E|-----------------------------------------------------|-----------------------------------------------|
B|-----------------------------------------------------|-----------------------------------------------|
G|------%---%---%----%---%---%----%---%---%----%---%---|-%----%---%---%----%---%-----------------------|
D|-9----%---%---%----%---%---%----%---%---%----%---%---|-%----%---%---%----%---%--------5---------9----|
A|-7---------------------------------------------------|---------------------------5---------5----7----|
E|-----------------------------------------------------|-----------------------------------------------|

E|-----------------------------------------------|--------------------------------------------|
B|-----------------------------------------------|--------------------------------------------|
G|-----------------------------------------------|--------------------------------------------|
D|-9---------------------------------------------|-----------------------------5--------------|
A|-7----7----7---5--------5----5----5---3--------|-3----3----3---2--------5---------5----7----|
E|-------------------7----------------------5----|-------------------3------------------------|

E|-----------------------------------------------|--------------------------------------------|
B|-----------------------------------------------|--------------------------------------------|
G|-----------------------------------------------|--------------------------------------------|
D|-----------------------------------------------|-----------------------------5--------------|
A|-7----7----7---5--------5----5----5---3--------|-3----3----3---2--------5---------5----7----|
E|-------------------7----------------------5----|-------------------3------------------------|

E|-----------------------------------------------|--------------------------------------------|
B|-----------------------------------------------|--------------------------------------------|
G|-----------------------------------------------|--------------------------------------------|
D|-----------------------------------------------|-----------------------------5--------------|
A|-7----7----7---5--------5----5----5---3--------|-3----3----3---2--------5---------5----7----|
E|-------------------7----------------------5----|-------------------3------------------------|

E|-----------------------------------------------|--------------------------------------------|
B|-----------------------------------------------|--------------------------------------------|
G|-----------------------------------------------|--------------------------------------------|
D|-----------------------------------------------|-----------------------------5---------9----|
A|-7----7----7---5--------5----5----5---3--------|-3----3----3---2--------5---------5----7----|
E|-------------------7----------------------5----|-------------------3------------------------|

E|------------------------|
B|------------------------|
G|------%------%-----%----|
D|-9----%------%-----%----|
A|-7----------------------|
E|------------------------|
Iron Maiden - The Trooper
Iron Maiden - The Trooper.gp3