Iron Maiden - The Trooper (3)

Iron Maiden - The Trooper (3)

Iron Maiden



Title: The Trooper
Album: Piece of Mind
Artist: Iron Maiden
Author: Steve Harris

Track 1: Guitar 1
E|---------|-----------------------------------------------|--------------------------------------------|
B|---------|-----------------------------------------------|--------------------------------------------|
G|-%-------|-----------------------------------------------|--------------------------------------------|
D|-%-------|-----------------------------------------------|-----------------------------5--------------|
A|---------|-7----7----7---5--------5----5----5---3--------|-3----3----3---2--------5---------5----7----|
E|---------|-0-----------------7----------------------5----|-------------------3------------------------|

E|-----------------------------------------------|--------------------------------------------|
B|-----------------------------------------------|--------------------------------------------|
G|-----------------------------------------------|--------------------------------------------|
D|-----------------------------------------------|-----------------------------5--------------|
A|-7----7----7---5--------5----5----5---3--------|-3----3----3---2--------5---------5----7----|
E|-------------------7----------------------5----|-------------------3------------------------|

E|-----------------------------------------------|--------------------------------------------|
B|-----------------------------------------------|--------------------------------------------|
G|-----------------------------------------------|--------------------------------------------|
D|-----------------------------------------------|-----------------------------5--------------|
A|-7----7----7---5--------5----5----5---3--------|-3----3----3---2--------5---------5----7----|
E|-------------------7----------------------5----|-------------------3------------------------|

E|-----------------------------------------------|--------------------------------------------|
B|-----------------------------------------------|--------------------------------------------|
G|-----------------------------------------------|--------------------------------------------|
D|-----------------------------------------------|-----------------------------5--------------|
A|-7----7----7---5--------5----5----5---3--------|-3----3----3---2--------5---------5----7----|
E|-------------------7----------------------5----|-------------------3------------------------|

E|-----------------------------------7---------------------------------|-------------------------------------|
B|------8----7---8---7---8---7---8--------8----7---8---7---8---7---8---|-8--------------------8--------------|
G|---------------------------------------------------------------------|------9----9-----7---------7----9----|
D|---------------------------------------------------------------------|-------------------------------------|
A|-7-------------------------------------------------------------------|-------------------------------------|
E|---------------------------------------------------------------------|-------------------------------------|

E|-----------------------------------7---------------------------------|-------------------------------------|
B|------8----7---8---7---8---7---8--------8----7---8---7---8---7---8---|-8--------------------8--------------|
G|-9-------------------------------------------------------------------|------9----9-----7---------7----9----|
D|---------------------------------------------------------------------|-------------------------------------|
A|---------------------------------------------------------------------|-------------------------------------|
E|---------------------------------------------------------------------|-------------------------------------|

E|-----------------------------------7---------------------------------|-------------------------------------|
B|------8----7---8---7---8---7---8--------8----7---8---7---8---7---8---|-8--------------------8--------------|
G|-9-------------------------------------------------------------------|------9----9-----7---------7----9----|
D|---------------------------------------------------------------------|-------------------------------------|
A|---------------------------------------------------------------------|-------------------------------------|
E|---------------------------------------------------------------------|-------------------------------------|

E|-----------------------------------7---------------------------------|-------------------------------------|
B|------8----7---8---7---8---7---8--------8----7---8---7---8---7---8---|-8--------------------8--------------|
G|-9-------------------------------------------------------------------|------9----9-----7---------7----9----|
D|---------------------------------------------------------------------|-------------------------------------|
A|---------------------------------------------------------------------|-------------------------------------|
E|---------------------------------------------------------------------|-------------------------------------|

E|-----------------------------------7---------------------------------|-------------------------------------|
B|------8----7---8---7---8---7---8--------8----7---8---7---8---7---8---|-8--------------------8--------------|
G|-9-------------------------------------------------------------------|------9----9-----7---------7----9----|
D|---------------------------------------------------------------------|-------------------------------------|
A|---------------------------------------------------------------------|-------------------------------------|
E|---------------------------------------------------------------------|-------------------------------------|

E|-----------------------------------7---------------------------------|-------------------------------------|
B|------8----7---8---7---8---7---8--------8----7---8---7---8---7---8---|-8--------------------8--------------|
G|-9-------------------------------------------------------------------|------9----9-----7---------7----9----|
D|---------------------------------------------------------------------|-------------------------------------|
A|---------------------------------------------------------------------|-------------------------------------|
E|---------------------------------------------------------------------|-------------------------------------|

E|-----------------------------------7---------------------------------|-------------------------------------|
B|------8----7---8---7---8---7---8--------8----7---8---7---8---7---8---|-8--------------------8--------------|
G|-9-------------------------------------------------------------------|------9----9-----7---------7----9----|
D|---------------------------------------------------------------------|-------------------------------------|
A|---------------------------------------------------------------------|-------------------------------------|
E|---------------------------------------------------------------------|-------------------------------------|

E|-----------------------------------7---------------------------------|-------------------------------------|
B|------8----7---8---7---8---7---8--------8----7---8---7---8---7---8---|-8-----------------------------------|
G|-9-------------------------------------------------------------------|------9----9----------7--------------|
D|---------------------------------------------------------------------|-----------------7----5----7----9----|
A|---------------------------------------------------------------------|-----------------5---------5----7----|
E|---------------------------------------------------------------------|-------------------------------------|

E|------------------------|----------------------------|------------------------|----------------------------|
B|------------------------|----------------------------|------------------------|----------------------------|
G|------%------%-----%----|-%-----------7--------------|------%------%-----%----|-%-----------7--------------|
D|-9----%------%-----%----|-%------7----5----7----9----|-9----%------%-----%----|-%------7----5----7----5----|
A|-7----------------------|--------5---------5----7----|-7----------------------|--------5---------5----3----|
E|------------------------|----------------------------|------------------------|----------------------------|

E|------------------------|----------------------------|------------------------|----------------------------|
B|------------------------|----------------------------|------------------------|----------------------------|
G|------%------%-----%----|-%-----------7--------------|------%------%-----%----|-%-----------7--------------|
D|-5----%------%-----%----|-%------7----5----7----9----|-9----%------%-----%----|-%------7----5----7----9----|
A|-3----------------------|--------5---------5----7----|-7----------------------|--------5---------5----7----|
E|------------------------|----------------------------|------------------------|----------------------------|

E|-----------------------------------------------------|-----------------------------------------------|
B|-----------------------------------------------------|-----------------------------------------------|
G|-----------------------------------------------------|--------------------------------7--------------|
D|-9------------9------------9------------9------------|-9------------9------------7----5----7----9----|
A|-7----7---7---7----7---7---7----7---7---7----7---7---|-7----7---7---7----7---7---5---------5----7----|
E|-----------------------------------------------------|-----------------------------------------------|

E|-----------------------------------------------------|-----------------------------------------------|
B|-----------------------------------------------------|-----------------------------------------------|
G|-----------------------------------------------------|--------------------------------7--------------|
D|-9------------9------------9------------9------------|-9------------9------------7----5----7----5----|
A|-7----7---7---7----7---7---7----7---7---7----7---7---|-7----7---7---7----7---7---5---------5----3----|
E|-----------------------------------------------------|-----------------------------------------------|

E|-----------------------------------------------------|-----------------------------------------------|
B|-----------------------------------------------------|-----------------------------------------------|
G|-----------------------------------------------------|--------------------------------7--------------|
D|-5------------5------------5------------5------------|-5------------5------------7----5----7----9----|
A|-3----3---3---3----3---3---3----3---3---3----3---3---|-3----3---3---3----3---3---5---------5----7----|
E|-----------------------------------------------------|-----------------------------------------------|

E|-----------------------------------------------------|-----------------------------------------------|
B|-----------------------------------------------------|-----------------------------------------------|
G|-----------------------------------------------------|--------------------------------7--------------|
D|-9------------9------------9------------9------------|-9------------9------------7----5----7----7----|
A|-7----7---7---7----7---7---7----7---7---7----7---7---|-7----7---7---7----7---7---5---------5----5----|
E|-----------------------------------------------------|-----------------------------------------------|

E|---------|----------------------|-----------------------------------------------------|
B|---------|----------------------|-----------------------------------------------------|
G|---------|-------------%--------|-----------------------------------------------------|
D|-7-------|-7-------7---%---2----|-2------------2------------2------------2------------|
A|-5-------|-5-------5-------2----|-2------------2------------2------------2------------|
E|---------|-----------------0----|-0----0---0---0----0---0---0----0---0---0----0---0---|

E|--------------------------------------------------|---------|----------------------|
B|--------------------------------------------------|---------|----------------------|
G|--------------------------------------------------|---------|-------------%--------|
D|-2------------2------------2------------2----7----|-7-------|-7-------7---%---2----|
A|-2------------2------------2------------2----5----|-5-------|-5-------5-------2----|
E|-0----0---0---0----0---0---0----0---0---0---------|---------|-----------------0----|

E|-----------------------------------------------------|----------------------------------------|
B|-----------------------------------------------------|----------------------------------------|
G|-----------------------------------------------------|-------------------------7--------------|
D|-2------------2------------2------------2------------|-2------------2-----7----5----7----9----|
A|-2------------2------------2------------2------------|-2------------2-----5---------5----7----|
E|-0----0---0---0----0---0---0----0---0---0----0---0---|-0----0---0---0-------------------------|

E|-----------------------------------7---------------------------------|-------------------------------------|
B|------8----7---8---7---8---7---8--------8----7---8---7---8---7---8---|-8--------------------8--------------|
G|---------------------------------------------------------------------|------9----9-----7---------7----9----|
D|-9-------------------------------------------------------------------|-------------------------------------|
A|-7-------------------------------------------------------------------|-------------------------------------|
E|---------------------------------------------------------------------|-------------------------------------|

E|-----------------------------------7---------------------------------|-------------------------------------|
B|------8----7---8---7---8---7---8--------8----7---8---7---8---7---8---|-8--------------------8--------------|
G|-9-------------------------------------------------------------------|------9----9-----7---------7----9----|
D|---------------------------------------------------------------------|-------------------------------------|
A|---------------------------------------------------------------------|-------------------------------------|
E|---------------------------------------------------------------------|-------------------------------------|

E|-----------------------------------7---------------------------------|-------------------------------------|
B|------8----7---8---7---8---7---8--------8----7---8---7---8---7---8---|-8--------------------8--------------|
G|-9-------------------------------------------------------------------|------9----9-----7---------7----9----|
D|---------------------------------------------------------------------|-------------------------------------|
A|---------------------------------------------------------------------|-------------------------------------|
E|---------------------------------------------------------------------|-------------------------------------|

E|-----------------------------------7---------------------------------|-------------------------------------|
B|------8----7---8---7---8---7---8--------8----7---8---7---8---7---8---|-8--------------------8--------------|
G|-9-------------------------------------------------------------------|------9----9-----7---------7----9----|
D|---------------------------------------------------------------------|-------------------------------------|
A|---------------------------------------------------------------------|-------------------------------------|
E|---------------------------------------------------------------------|-------------------------------------|

E|-----------------------------------7---------------------------------|-------------------------------------|
B|------8----7---8---7---8---7---8--------8----7---8---7---8---7---8---|-8--------------------8--------------|
G|-9-------------------------------------------------------------------|------9----9-----7---------7----9----|
D|---------------------------------------------------------------------|-------------------------------------|
A|---------------------------------------------------------------------|-------------------------------------|
E|---------------------------------------------------------------------|-------------------------------------|

E|-----------------------------------7---------------------------------|-------------------------------------|
B|------8----7---8---7---8---7---8--------8----7---8---7---8---7---8---|-8--------------------8--------------|
G|-9-------------------------------------------------------------------|------9----9-----7---------7----9----|
D|---------------------------------------------------------------------|-------------------------------------|
A|---------------------------------------------------------------------|-------------------------------------|
E|---------------------------------------------------------------------|-------------------------------------|

E|-----------------------------------7---------------------------------|-------------------------------------|
B|------8----7---8---7---8---7---8--------8----7---8---7---8---7---8---|-8--------------------8--------------|
G|-9-------------------------------------------------------------------|------9----9-----7---------7----9----|
D|---------------------------------------------------------------------|-------------------------------------|
A|---------------------------------------------------------------------|-------------------------------------|
E|---------------------------------------------------------------------|-------------------------------------|

E|-----------------------------------7---------------------------------|-------------------------------------|
B|------8----7---8---7---8---7---8--------8----7---8---7---8---7---8---|-8-----------------------------------|
G|-9-------------------------------------------------------------------|------9----9----------7--------------|
D|---------------------------------------------------------------------|-----------------7----5----7----9----|
A|---------------------------------------------------------------------|-----------------5---------5----5----|
E|---------------------------------------------------------------------|-------------------------------------|

E|-----------------------------------------------------|-----------------------------------------------|
B|-----------------------------------------------------|-----------------------------------------------|
G|-----------------------------------------------------|--------------------------------7--------------|
D|-9------------9------------9------------9------------|-9------------9------------7----5----7----9----|
A|------7---7---7----7---7---7----7---7---7----7---7---|-7----7---7---7----7---7---5---------5----7----|
E|-----------------------------------------------------|-----------------------------------------------|

E|-----------------------------------------------------|-----------------------------------------------|
B|-----------------------------------------------------|-----------------------------------------------|
G|-----------------------------------------------------|--------------------------------7--------------|
D|-9------------9------------9------------9------------|-9------------9------------7----5----7----5----|
A|-7----7---7---7----7---7---7----7---7---7----7---7---|-7----7---7---7----7---7---5---------5----3----|
E|-----------------------------------------------------|-----------------------------------------------|

E|-----------------------------------------------------|-----------------------------------------------|
B|-----------------------------------------------------|-----------------------------------------------|
G|-----------------------------------------------------|--------------------------------7--------------|
D|-5------------5------------5------------5------------|-5------------5------------7----5----7----9----|
A|-3----3---3---3----3---3---3----3---3---3----3---3---|-3----3---3---3----3---3---5---------5----7----|
E|-----------------------------------------------------|-----------------------------------------------|

E|-----------------------------------------------------|-----------------------------------------------|
B|-----------------------------------------------------|-----------------------------------------------|
G|-----------------------------------------------------|--------------------------------7--------------|
D|-9------------9------------9------------9------------|-9------------9------------7----5----7----9----|
A|-7----7---7---7----7---7---7----7---7---7----7---7---|-7----7---7---7----7---7---5---------5----7----|
E|-----------------------------------------------------|-----------------------------------------------|

E|-----------------------------------------------------|-----------------------------------------------|
B|-----------------------------------------------------|-----------------------------------------------|
G|-----------------------------------------------------|--------------------------------7--------------|
D|-9------------9------------9------------9------------|-9------------9------------7----5----7----9----|
A|-7----7---7---7----7---7---7----7---7---7----7---7---|-7----7---7---7----7---7---5---------5----7----|
E|-----------------------------------------------------|-----------------------------------------------|

E|-----------------------------------------------------|-----------------------------------------------|
B|-----------------------------------------------------|-----------------------------------------------|
G|-----------------------------------------------------|--------------------------------7--------------|
D|-9------------9------------9------------9------------|-9------------9------------7----5----7----5----|
A|-7----7---7---7----7---7---7----7---7---7----7---7---|-7----7---7---7----7---7---5---------5----3----|
E|-----------------------------------------------------|-----------------------------------------------|

E|-----------------------------------------------------|-----------------------------------------------|
B|-----------------------------------------------------|-----------------------------------------------|
G|-----------------------------------------------------|--------------------------------7--------------|
D|-5------------5------------5------------5------------|-5------------5------------7----5----7----9----|
A|-3----3---3---3----3---3---3----3---3---3----3---3---|-3----3---3---3----3---3---5---------5----7----|
E|-----------------------------------------------------|-----------------------------------------------|

E|-----------------------------------------------------|-----------------------------------------------|
B|-----------------------------------------------------|-----------------------------------------------|
G|-----------------------------------------------------|--------------------------------7--------------|
D|-9------------9------------9------------9------------|-9------------9------------7----5----7----7----|
A|-7----7---7---7----7---7---7----7---7---7----7---7---|-7----7---7---7----7---7---5---------5----5----|
E|-----------------------------------------------------|-----------------------------------------------|

E|---------|----------------------|-----------------------------------------------------|
B|---------|----------------------|-----------------------------------------------------|
G|---------|-------------%--------|-----------------------------------------------------|
D|-7-------|-7-------7---%---2----|-2------------2------------2------------2------------|
A|-5-------|-5-------5-------2----|-2------------2------------2------------2------------|
E|---------|-----------------0----|-0----0---0---0----0---0---0----0---0---0----0---0---|

E|--------------------------------------------------|---------|----------------------|
B|--------------------------------------------------|---------|----------------------|
G|--------------------------------------------------|---------|-------------%--------|
D|-2------------2------------2------------2----7----|-7-------|-7-------7---%---2----|
A|-2------------2------------2------------2----5----|-5-------|-5-------5-------2----|
E|-0----0---0---0----0---0---0----0---0---0---------|---------|-----------------0----|

E|-----------------------------------------------------|----------------------------------------|
B|-----------------------------------------------------|----------------------------------------|
G|-----------------------------------------------------|-------------------------7--------------|
D|-2------------2------------2------------2------------|-2------------2-----7----5----7----9----|
A|-2------------2------------2------------2------------|-2------------2-----5---------5----7----|
E|-0----0---0---0----0---0---0----0---0---0----0---0---|-0----0---0---0-------------------------|

E|-------------------|-------------------|-------------------|-------------------------------|
B|-------------------|-------------------|-------------------|-------------------------------|
G|---------------%---|---------------%---|---------------%---|------------%--------------%---|
D|-9-------9-----%---|-7-------7-----%---|-4-------4-----%---|-5------5---%---7------7---%---|
A|-7-------7---------|-5-------5---------|-2-------2---------|-3------3-------5------5-------|
E|-------------------|-------------------|-------------------|-------------------------------|

E|-------------------|-------------------|-------------------|-------------------------------|
B|-------------------|-------------------|-------------------|-------------------------------|
G|---------------%---|---------------%---|---------------%---|------------%--------------%---|
D|-9-------9-----%---|-7-------7-----%---|-4-------4-----%---|-5------5---%---7------7---%---|
A|-7-------7---------|-5-------5---------|-2-------2---------|-3------3-------5------5-------|
E|-------------------|-------------------|-------------------|-------------------------------|

E|-------------------|-------------------|-------------------|-------------------------------|
B|-------------------|-------------------|-------------------|-------------------------------|
G|---------------%---|---------------%---|---------------%---|------------%--------------%---|
D|-9-------9-----%---|-7-------7-----%---|-4-------4-----%---|-5------5---%---7------7---%---|
A|-7-------7---------|-5-------5---------|-2-------2---------|-3------3-------5------5-------|
E|-------------------|-------------------|-------------------|-------------------------------|

E|-------------------|-------------------|-------------------|-------------------------------|
B|-------------------|-------------------|-------------------|-----------------------5---8---|
G|---------------%---|---------------%---|---------------%---|------------%------------------|
D|-9-------9-----%---|-7-------7-----%---|-4-------4-----%---|-5------5---%---7--------------|
A|-7-------7---------|-5-------5---------|-2-------2---------|-3------3-------5--------------|
E|-------------------|-------------------|-------------------|-------------------------------|

E|-8---5---8---5---8---5---8---5-----------------------------------|----------------------------|
B|---------------------------------8---5---8---5---8---5---8---5---|----------------------------|
G|-----------------------------------------------------------------|-7------7----7----6----5----|
D|-----------------------------------------------------------------|----------------------------|
A|-----------------------------------------------------------------|----------------------------|
E|-----------------------------------------------------------------|----------------------------|

E|-----------------------------------------|----------------------|--------------------------------------------------------------------------|
B|-----------------------------------------|----------------------|--------------------------10--12--10--12--10--12--10----------------------|
G|------6----5-----------------------------|---------%----9---11--|-9---11--9---11--9---%--------------------------------9---11--9---11--9---|
D|-7--------------7------------------------|---------%------------|---------------------%----------------------------------------------------|
A|---------------------6----5--------------|----------------------|--------------------------------------------------------------------------|
E|-------------------------------8----5----|-5--------------------|--------------------------------------------------------------------------|

E|----------------------------------------------------------------|------------------------------------|
B|---------10--12--10--12--10--12---12--13--11--13--12-------15---|-15----15---15---15---15--13--15----|
G|-11--9------------------------------------------------14--------|------------------------------------|
D|----------------------------------------------------------------|------------------------------------|
A|----------------------------------------------------------------|------------------------------------|
E|----------------------------------------------------------------|------------------------------------|

E|------------------12---15---|-12--15--12--12---------------------------------------|
B|-15-----15---15-------------|------------------15---15--13--12--13--12--------10---|
G|----------------------------|--------------------------------------------%---------|
D|----------------------------|--------------------------------------------%---------|
A|----------------------------|------------------------------------------------------|
E|----------------------------|------------------------------------------------------|

E|-10--12--10-------------------------|-------------------|-------------------|------------------------20---|
B|-------------10--13-----------------|--------------13---|-13----------------|------------20-----17--------|
G|------------------------%-----24----|-24------24--------|---------17---19---|-19----17--------------------|
D|------------------------%-----------|-------------------|-------------------|-----------------------------|
A|------------------------------------|-------------------|-------------------|-----------------------------|
E|------------------------------------|-------------------|-------------------|-----------------------------|

E|-20----17-------------------20---|-20---20---19---17-------------------|------------------------|
B|------------20---20----17--------|---------------------20--------------|------------------------|
G|---------------------------------|--------------------------19---19----|-19---19---17-----------|
D|---------------------------------|-------------------------------------|-----------------19-----|
A|---------------------------------|-------------------------------------|------------------------|
E|---------------------------------|-------------------------------------|------------------------|

E|-----------------------------------7---------------------------------|-------------------------------------|
B|------8----7---8---7---8---7---8--------8----7---8---7---8---7---8---|-8--------------------8--------------|
G|---------------------------------------------------------------------|------9----9-----7---------7----9----|
D|-19------------------------------------------------------------------|-------------------------------------|
A|---------------------------------------------------------------------|-------------------------------------|
E|---------------------------------------------------------------------|-------------------------------------|

E|-----------------------------------7---------------------------------|-------------------------------------|
B|------8----7---8---7---8---7---8--------8----7---8---7---8---7---8---|-8--------------------8--------------|
G|-9-------------------------------------------------------------------|------9----9-----7---------7----9----|
D|---------------------------------------------------------------------|-------------------------------------|
A|---------------------------------------------------------------------|-------------------------------------|
E|---------------------------------------------------------------------|-------------------------------------|

E|-----------------------------------7---------------------------------|-------------------------------------|
B|------8----7---8---7---8---7---8--------8----7---8---7---8---7---8---|-8--------------------8--------------|
G|-9-------------------------------------------------------------------|------9----9-----7---------7----9----|
D|---------------------------------------------------------------------|-------------------------------------|
A|---------------------------------------------------------------------|-------------------------------------|
E|---------------------------------------------------------------------|-------------------------------------|

E|-----------------------------------7---------------------------------|-------------------------------------|
B|------8----7---8---7---8---7---8--------8----7---8---7---8---7---8---|-8--------------------8--------------|
G|-9-------------------------------------------------------------------|------9----9-----7---------7----9----|
D|---------------------------------------------------------------------|-------------------------------------|
A|---------------------------------------------------------------------|-------------------------------------|
E|---------------------------------------------------------------------|-------------------------------------|

E|-----------------------------------7---------------------------------|-------------------------------------|
B|------8----7---8---7---8---7---8--------8----7---8---7---8---7---8---|-8--------------------8--------------|
G|-9-------------------------------------------------------------------|------9----9-----7---------7----9----|
D|---------------------------------------------------------------------|-------------------------------------|
A|---------------------------------------------------------------------|-------------------------------------|
E|---------------------------------------------------------------------|-------------------------------------|

E|-----------------------------------7---------------------------------|-------------------------------------|
B|------8----7---8---7---8---7---8--------8----7---8---7---8---7---8---|-8--------------------8--------------|
G|-9-------------------------------------------------------------------|------9----9-----7---------7----9----|
D|---------------------------------------------------------------------|-------------------------------------|
A|---------------------------------------------------------------------|-------------------------------------|
E|---------------------------------------------------------------------|-------------------------------------|

E|-----------------------------------7---------------------------------|-------------------------------------|
B|------8----7---8---7---8---7---8--------8----7---8---7---8---7---8---|-8--------------------8--------------|
G|-9-------------------------------------------------------------------|------9----9-----7---------7----9----|
D|---------------------------------------------------------------------|-------------------------------------|
A|---------------------------------------------------------------------|-------------------------------------|
E|---------------------------------------------------------------------|-------------------------------------|

E|-----------------------------------7---------------------------------|-------------------------------------|
B|------8----7---8---7---8---7---8--------8----7---8---7---8---7---8---|-8-----------------------------------|
G|-9-------------------------------------------------------------------|------9----9----------7--------------|
D|---------------------------------------------------------------------|-----------------7----5----7----9----|
A|---------------------------------------------------------------------|-----------------5---------5----7----|
E|---------------------------------------------------------------------|-------------------------------------|

E|-----------------------------------------------------|-----------------------------------------------|
B|-----------------------------------------------------|-----------------------------------------------|
G|-----------------------------------------------------|--------------------------------7--------------|
D|-9------------9------------9------------9------------|-9------------9------------7----5----7----9----|
A|-7----7---7---7----7---7---7----7---7---7----7---7---|-7----7---7---7----7---7---5---------5----7----|
E|-----------------------------------------------------|-----------------------------------------------|

E|-----------------------------------------------------|-----------------------------------------------|
B|-----------------------------------------------------|-----------------------------------------------|
G|-----------------------------------------------------|--------------------------------7--------------|
D|-9------------9------------9------------9------------|-9------------9------------7----5----7----5----|
A|-7----7---7---7----7---7---7----7---7---7----7---7---|-7----7---7---7----7---7---5---------5----3----|
E|-----------------------------------------------------|-----------------------------------------------|

E|-----------------------------------------------------|-----------------------------------------------|
B|-----------------------------------------------------|-----------------------------------------------|
G|-----------------------------------------------------|--------------------------------7--------------|
D|-5------------5------------5------------5------------|-5------------5------------7----5----7----9----|
A|-3----3---3---3----3---3---3----3---3---3----3---3---|-3----3---3---3----3---3---5---------5----7----|
E|-----------------------------------------------------|-----------------------------------------------|

E|-----------------------------------------------------|-----------------------------------------------|
B|-----------------------------------------------------|-----------------------------------------------|
G|-----------------------------------------------------|--------------------------------7--------------|
D|-9------------9------------9------------9------------|-9------------9------------7----5----7----9----|
A|-7----7---7---7----7---7---7----7---7---7----7---7---|-7----7---7---7----7---7---5---------5----7----|
E|-----------------------------------------------------|-----------------------------------------------|

E|-----------------------------------------------------|-----------------------------------------------|
B|-----------------------------------------------------|-----------------------------------------------|
G|-----------------------------------------------------|--------------------------------7--------------|
D|-9------------9------------9------------9------------|-9------------9------------7----5----7----9----|
A|-7----7---7---7----7---7---7----7---7---7----7---7---|-7----7---7---7----7---7---5---------5----7----|
E|-----------------------------------------------------|-----------------------------------------------|

E|-----------------------------------------------------|-----------------------------------------------|
B|-----------------------------------------------------|-----------------------------------------------|
G|-----------------------------------------------------|--------------------------------7--------------|
D|-9------------9------------9------------9------------|-9------------9------------7----5----7----5----|
A|-7----7---7---7----7---7---7----7---7---7----7---7---|-7----7---7---7----7---7---5---------5----3----|
E|-----------------------------------------------------|-----------------------------------------------|

E|-----------------------------------------------------|-----------------------------------------------|
B|-----------------------------------------------------|-----------------------------------------------|
G|-----------------------------------------------------|--------------------------------7--------------|
D|-5------------5------------5------------5------------|-5------------5------------7----5----7----9----|
A|-3----3---3---3----3---3---3----3---3---3----3---3---|-3----3---3---3----3---3---5---------5----7----|
E|-----------------------------------------------------|-----------------------------------------------|

E|-----------------------------------------------------|-----------------------------------------------|
B|-----------------------------------------------------|-----------------------------------------------|
G|-----------------------------------------------------|--------------------------------7--------------|
D|-9------------9------------9------------9------------|-9------------9------------7----5----7----7----|
A|-7----7---7---7----7---7---7----7---7---7----7---7---|-7----7---7---7----7---7---5---------5----5----|
E|-----------------------------------------------------|-----------------------------------------------|

E|---------|----------------------|-----------------------------------------------------|
B|---------|----------------------|-----------------------------------------------------|
G|---------|-------------%--------|-----------------------------------------------------|
D|-7-------|-7-------7---%---2----|-2------------2------------2------------2------------|
A|-5-------|-5-------5-------2----|-2------------2------------2------------2------------|
E|---------|-----------------0----|-0----0---0---0----0---0---0----0---0---0----0---0---|

E|--------------------------------------------------|---------|----------------------|
B|--------------------------------------------------|---------|----------------------|
G|--------------------------------------------------|---------|-------------%--------|
D|-2------------2------------2------------2----7----|-7-------|-7-------7---%---2----|
A|-2------------2------------2------------2----5----|-5-------|-5-------5-------2----|
E|-0----0---0---0----0---0---0----0---0---0---------|---------|-----------------0----|

E|-----------------------------------------------------|----------------------------------------|
B|-----------------------------------------------------|----------------------------------------|
G|-----------------------------------------------------|-------------------------7--------------|
D|-2------------2------------2------------2------------|-2------------2-----7----5----7----9----|
A|-2------------2------------2------------2------------|-2------------2-----5---------5----7----|
E|-0----0---0---0----0---0---0----0---0---0----0---0---|-0----0---0---0-------------------------|

E|-----------------------------------------------|--------------------------------------------|
B|-----------------------------------------------|--------------------------------------------|
G|-----------------------------------------------|--------------------------------------------|
D|-9---------------------------------------------|-----------------------------5--------------|
A|-7----7----7---5--------5----5----5---3--------|-3----3----3---2--------5---------5----7----|
E|-------------------7----------------------5----|-------------------3------------------------|

E|-----------------------------------------------|--------------------------------------------|
B|-----------------------------------------------|--------------------------------------------|
G|-----------------------------------------------|--------------------------------------------|
D|-----------------------------------------------|-----------------------------5--------------|
A|-7----7----7---5--------5----5----5---3--------|-3----3----3---2--------5---------5----7----|
E|-------------------7----------------------5----|-------------------3------------------------|

E|-----------------------------------------------|--------------------------------------------|
B|-----------------------------------------------|--------------------------------------------|
G|-----------------------------------------------|--------------------------------------------|
D|-----------------------------------------------|-----------------------------5--------------|
A|-7----7----7---5--------5----5----5---3--------|-3----3----3---2--------5---------5----7----|
E|-------------------7----------------------5----|-------------------3------------------------|

E|-----------------------------------------------|--------------------------------------------|
B|-----------------------------------------------|--------------------------------------------|
G|-----------------------------------------------|-----------------------------7--------------|
D|-----------------------------------------------|------------------------7----5----7----9----|
A|-7----7----7---5--------5----5----5---3--------|-3----3----3---2--------5---------5----7----|
E|-------------------7----------------------5----|-------------------3------------------------|

E|--------------------|
B|--------------------|
G|-------%------%-----|
D|-9-----%------%-----|
A|-7------------------|
E|--------------------|
Iron Maiden - The Trooper (3)
Iron Maiden - The Trooper (3).gp3