Iron Maiden - The Trooper (5)

Iron Maiden - The Trooper (5)

Iron Maiden



Title: The Trooper
Album: Peace Of Mind
Artist: Iron Maiden
Author: Steve Harris

Track 1: Guitar 
E|-----------------------------------------------|--------------------------------------------|
B|-----------------------------------------------|--------------------------------------------|
G|-----------------------------------------------|--------------------------------------------|
D|-----------------------------------------------|-----------------------------5--------------|
A|-7----7----7---5--------5----5----5---3--------|-3----3----3---2--------5---------5----7----|
E|-------------------7----------------------5----|-------------------3------------------------|

E|-----------------------------------------------|--------------------------------------------|
B|-----------------------------------------------|--------------------------------------------|
G|-----------------------------------------------|--------------------------------------------|
D|-----------------------------------------------|-----------------------------5--------------|
A|-7----7----7---5--------5----5----5---3--------|-3----3----3---2--------5---------5----7----|
E|-------------------7----------------------5----|-------------------3------------------------|

E|-----------------------------------------------|--------------------------------------------|
B|-----------------------------------------------|--------------------------------------------|
G|-----------------------------------------------|--------------------------------------------|
D|-----------------------------------------------|-----------------------------9--------------|
A|-7----10---10--9--------9----9----9---7--------|-7----7----7---5--------9---------9----10---|
E|-------------------10---------------------8----|-------------------7------------------------|

E|-----------------------------------------------|--------------------------------------------|
B|-----------------------------------------------|--------------------------------------------|
G|-----------------------------------------------|--------------------------------------------|
D|-----------------------------------------------|-----------------------------9--------------|
A|-10---10---10--9--------9----9----9---7--------|-7----7----7---5--------9---------9----10---|
E|-------------------10---------------------8----|-------------------7------------------------|

E|---------------------------------------------------------------------|-------------------------------------|
B|---------------------------------------------------------------------|-------------------------------------|
G|-----------------------------------7---------------------------------|-------------------------------------|
D|------9----7---9---7---9---7---9--------9----7---9---7---9---7---9---|-9-----------------------------------|
A|-10------------------------------------------------------------------|------10---10----9----10---9----10---|
E|---------------------------------------------------------------------|-------------------------------------|

E|---------------------------------------------------------------------|-------------------------------------|
B|---------------------------------------------------------------------|-------------------------------------|
G|-----------------------------------7---------------------------------|-------------------------------------|
D|------9----7---9---7---9---7---9--------9----7---9---7---9---7---9---|-9-----------------------------------|
A|-10------------------------------------------------------------------|------10---10----9----10---9----10---|
E|---------------------------------------------------------------------|-------------------------------------|

E|---------------------------------------------------------------------|-------------------------------------|
B|---------------------------------------------------------------------|-------------------------------------|
G|-----------------------------------7---------------------------------|-------------------------------------|
D|------9----7---9---7---9---7---9--------9----7---9---7---9---7---9---|-9-----------------------------------|
A|-10------------------------------------------------------------------|------10---10----9----10---9----10---|
E|---------------------------------------------------------------------|-------------------------------------|

E|---------------------------------------------------------------------|-------------------------------------|
B|---------------------------------------------------------------------|-------------------------------------|
G|-----------------------------------7---------------------------------|-------------------------------------|
D|------9----7---9---7---9---7---9--------9----7---9---7---9---7---9---|-9-----------------------------------|
A|-10------------------------------------------------------------------|------10---10----9----10---9----10---|
E|---------------------------------------------------------------------|-------------------------------------|

E|-----------------------------------10--------------------------------|-------------------------------------|
B|------12---10--12--10--12--10--12-------12---10--12--10--12--10--12--|-12----------------------------------|
G|---------------------------------------------------------------------|------12---12----11---12---11---12---|
D|---------------------------------------------------------------------|-------------------------------------|
A|-10------------------------------------------------------------------|-------------------------------------|
E|---------------------------------------------------------------------|-------------------------------------|

E|-----------------------------------10--------------------------------|-------------------------------------|
B|------12---10--12--10--12--10--12-------12---10--12--10--12--10--12--|-12----------------------------------|
G|-12------------------------------------------------------------------|------12---12----11---12---11---12---|
D|---------------------------------------------------------------------|-------------------------------------|
A|---------------------------------------------------------------------|-------------------------------------|
E|---------------------------------------------------------------------|-------------------------------------|

E|-----------------------------------10--------------------------------|-------------------------------------|
B|------12---10--12--10--12--10--12-------12---10--12--10--12--10--12--|-12----------------------------------|
G|-12------------------------------------------------------------------|------12---12----11---12---11---12---|
D|---------------------------------------------------------------------|-------------------------------------|
A|---------------------------------------------------------------------|-------------------------------------|
E|---------------------------------------------------------------------|-------------------------------------|

E|-----------------------------------10--------------------------------|-------------------------------------|
B|------12---10--12--10--12--10--12-------12---10--12--10--12--10--12--|-12----------------------------------|
G|-12------------------------------------------------------------------|------12---12---------7--------------|
D|---------------------------------------------------------------------|-----------------7----5----7----9----|
A|---------------------------------------------------------------------|-----------------5---------5----7----|
E|---------------------------------------------------------------------|-------------------------------------|

E|------------------------|----------------------------|------------------------|----------------------------|
B|------------------------|----------------------------|------------------------|----------------------------|
G|------%------%-----%----|-%--------------------------|------%------%-----%----|-%--------------------------|
D|-9----%------%-----%----|-%-----------5---------9----|-9----%------%-----%----|-%-----------5---------5----|
A|-7----------------------|--------5---------5----7----|-7----------------------|--------5---------5----3----|
E|------------------------|----------------------------|------------------------|----------------------------|

E|------------------------|----------------------------|------------------------|----------------------------|
B|------------------------|----------------------------|------------------------|----------------------------|
G|------%------%-----%----|-%--------------------------|------%------%-----%----|-%--------------------------|
D|-5----%------%-----%----|-%-----------5---------9----|-9----%------%-----%----|-%-----------5---------9----|
A|-3----------------------|--------5---------5----7----|-7----------------------|--------5---------5----7----|
E|------------------------|----------------------------|------------------------|----------------------------|

E|-----------------------------------------------------|-----------------------------------------------|
B|-----------------------------------------------------|-----------------------------------------------|
G|-----------------------------------------------------|-----------------------------------------------|
D|-9------------9------------9------------9------------|-9------------9-----------------5---------9----|
A|-7----7---7---7----7---7---7----7---7---7----7---7---|-7----7---7---7----7---7---5---------5----7----|
E|-----------------------------------------------------|-----------------------------------------------|

E|-----------------------------------------------------|-----------------------------------------------|
B|-----------------------------------------------------|-----------------------------------------------|
G|-----------------------------------------------------|-----------------------------------------------|
D|-9------------9------------9------------9------------|-9------------9-----------------5---------5----|
A|-7----7---7---7----7---7---7----7---7---7----7---7---|-7----7---7---7----7---7---5---------5----3----|
E|-----------------------------------------------------|-----------------------------------------------|

E|-----------------------------------------------------|-----------------------------------------------|
B|-----------------------------------------------------|-----------------------------------------------|
G|-----------------------------------------------------|-----------------------------------------------|
D|-5------------5------------5------------5------------|-5------------5-----------------5---------9----|
A|-3----3---3---3----3---3---3----3---3---3----3---3---|-3----3---3---3----3---3---5---------5----7----|
E|-----------------------------------------------------|-----------------------------------------------|

E|-----------------------------------------------------|-----------------------------------------------|
B|-----------------------------------------------------|-----------------------------------------------|
G|-----------------------------------------------------|-----------------------------------------------|
D|-9------------9------------9------------9------------|-9------------9-----------------5---------7----|
A|-7----7---7---7----7---7---7----7---7---7----7---7---|-7----7---7---7----7---7---5---------5----5----|
E|-----------------------------------------------------|-----------------------------------------------|

E|---------|-------------------|---------|-------------------|---------|-------------------|
B|---------|-------------------|---------|-------------------|---------|-------------------|
G|---------|-------------------|---------|-------------------|---------|-------------------|
D|-7-------|-7-------7----9----|-9-------|-9-------9----7----|-7-------|-7-------7----9----|
A|-5-------|-5-------5----7----|-7-------|-7-------7----5----|-5-------|-5-------5----7----|
E|---------|-------------------|---------|-------------------|---------|-------------------|

E|---------|----------------------------|---------------------------------------------------------------------|
B|---------|----------------------------|---------------------------------------------------------------------|
G|---------|-%--------------------------|-----------------------------------7---------------------------------|
D|-9-------|-%-----------5---------9----|-9----9----7---9---7---9---7---9--------9----7---9---7---9---7---9---|
A|-7-------|--------5---------5----7----|-7-------------------------------------------------------------------|
E|---------|----------------------------|---------------------------------------------------------------------|

E|-------------------------------------|---------------------------------------------------------------------|
B|-------------------------------------|---------------------------------------------------------------------|
G|-------------------------------------|-----------------------------------7---------------------------------|
D|-9--------------------5---------9----|-9----9----7---9---7---9---7---9--------9----7---9---7---9---7---9---|
A|------10---10----5---------5----7----|-7-------------------------------------------------------------------|
E|-------------------------------------|---------------------------------------------------------------------|

E|-------------------------------------|---------------------------------------------------------------------|
B|-------------------------------------|---------------------------------------------------------------------|
G|-------------------------------------|-----------------------------------7---------------------------------|
D|-9--------------------5---------9----|-9----9----7---9---7---9---7---9--------9----7---9---7---9---7---9---|
A|------10---10----5---------5----7----|-7-------------------------------------------------------------------|
E|-------------------------------------|---------------------------------------------------------------------|

E|-------------------------------------|---------------------------------------------------------------------|
B|-------------------------------------|---------------------------------------------------------------------|
G|-------------------------------------|-----------------------------------7---------------------------------|
D|-9--------------------5---------9----|-9----9----7---9---7---9---7---9--------9----7---9---7---9---7---9---|
A|------10---10----5---------5----7----|-7-------------------------------------------------------------------|
E|-------------------------------------|---------------------------------------------------------------------|

E|-------------------------------------|-----------------------------------10--------------------------------|
B|-------------------------------------|------12---10--12--10--12--10--12-------12---10--12--10--12--10--12--|
G|-------------------------------------|---------------------------------------------------------------------|
D|-9--------------------5---------9----|-9-------------------------------------------------------------------|
A|------10---10----5---------5----7----|-7-------------------------------------------------------------------|
E|-------------------------------------|---------------------------------------------------------------------|

E|-------------------------------------|-----------------------------------10--------------------------------|
B|-12----------------------------------|------12---10--12--10--12--10--12-------12---10--12--10--12--10--12--|
G|------12---12----11---12---11---12---|-12------------------------------------------------------------------|
D|-------------------------------------|---------------------------------------------------------------------|
A|-------------------------------------|---------------------------------------------------------------------|
E|-------------------------------------|---------------------------------------------------------------------|

E|-------------------------------------|-----------------------------------10--------------------------------|
B|-12----------------------------------|------12---10--12--10--12--10--12-------12---10--12--10--12--10--12--|
G|------12---12----11---12---11---12---|-12------------------------------------------------------------------|
D|-------------------------------------|---------------------------------------------------------------------|
A|-------------------------------------|---------------------------------------------------------------------|
E|-------------------------------------|---------------------------------------------------------------------|

E|-------------------------------------|-----------------------------------10--------------------------------|
B|-12----------------------------------|------12---10--12--10--12--10--12-------12---10--12--10--12--10--12--|
G|------12---12----11---12---11---12---|-12------------------------------------------------------------------|
D|-------------------------------------|---------------------------------------------------------------------|
A|-------------------------------------|---------------------------------------------------------------------|
E|-------------------------------------|---------------------------------------------------------------------|

E|-------------------------------------|-----------------------------------------------------|
B|-12----------------------------------|-----------------------------------------------------|
G|------12---12----11---12---11---12---|-12--------------------------------------------------|
D|-------------------------------------|--------------9------------9------------9------------|
A|-------------------------------------|------7---7---7----7---7---7----7---7---7----7---7---|
E|-------------------------------------|-----------------------------------------------------|

E|-----------------------------------------------|-----------------------------------------------------|
B|-----------------------------------------------|-----------------------------------------------------|
G|-----------------------------------------------|-----------------------------------------------------|
D|-9------------9-----------------5---------9----|-9------------9------------9------------9------------|
A|-7----7---7---7----7---7---5---------5----7----|-7----7---7---7----7---7---7----7---7---7----7---7---|
E|-----------------------------------------------|-----------------------------------------------------|

E|-----------------------------------------------|-----------------------------------------------------|
B|-----------------------------------------------|-----------------------------------------------------|
G|-----------------------------------------------|-----------------------------------------------------|
D|-9------------9-----------------5---------5----|-5------------5------------5------------5------------|
A|-7----7---7---7----7---7---5---------5----3----|-3----3---3---3----3---3---3----3---3---3----3---3---|
E|-----------------------------------------------|-----------------------------------------------------|

E|-----------------------------------------------|-----------------------------------------------------|
B|-----------------------------------------------|-----------------------------------------------------|
G|-----------------------------------------------|-----------------------------------------------------|
D|-5------------5-----------------5---------9----|-9------------9------------9------------9------------|
A|-3----3---3---3----3---3---5---------5----7----|-7----7---7---7----7---7---7----7---7---7----7---7---|
E|-----------------------------------------------|-----------------------------------------------------|

E|-----------------------------------------------|-----------------------------------------------------|
B|-----------------------------------------------|-----------------------------------------------------|
G|-----------------------------------------------|-----------------------------------------------------|
D|-9------------9-----------------5---------9----|-9------------9------------9------------9------------|
A|-7----7---7---7----7---7---5---------5----7----|-7----7---7---7----7---7---7----7---7---7----7---7---|
E|-----------------------------------------------|-----------------------------------------------------|

E|-----------------------------------------------|-----------------------------------------------------|
B|-----------------------------------------------|-----------------------------------------------------|
G|-----------------------------------------------|-----------------------------------------------------|
D|-9------------9-----------------5---------9----|-9------------9------------9------------9------------|
A|-7----7---7---7----7---7---5---------5----7----|-7----7---7---7----7---7---7----7---7---7----7---7---|
E|-----------------------------------------------|-----------------------------------------------------|

E|-----------------------------------------------|-----------------------------------------------------|
B|-----------------------------------------------|-----------------------------------------------------|
G|-----------------------------------------------|-----------------------------------------------------|
D|-9------------9-----------------5---------5----|-5------------5------------5------------5------------|
A|-7----7---7---7----7---7---5---------5----3----|-3----3---3---3----3---3---3----3---3---3----3---3---|
E|-----------------------------------------------|-----------------------------------------------------|

E|-----------------------------------------------|-----------------------------------------------------|
B|-----------------------------------------------|-----------------------------------------------------|
G|-----------------------------------------------|-----------------------------------------------------|
D|-5------------5-----------------5---------9----|-9------------9------------9------------9------------|
A|-3----3---3---3----3---3---5---------5----7----|-7----7---7---7----7---7---7----7---7---7----7---7---|
E|-----------------------------------------------|-----------------------------------------------------|

E|-----------------------------------------------|---------|-------------------|---------|
B|-----------------------------------------------|---------|-------------------|---------|
G|------------------------------------------7----|-7-------|-7-------7----9----|-9-------|
D|-9------------9-----------------5---------7----|-7-------|-7-------7----9----|-9-------|
A|-7----7---7---7----7---7---5---------5----5----|-5-------|-5-------5----7----|-7-------|
E|-----------------------------------------------|---------|-------------------|---------|

E|-------------------|---------|-------------------|---------|----------------------------|
B|-------------------|---------|-------------------|---------|----------------------------|
G|-9-------9----7----|-7-------|-7-------7----9----|-9-------|-%---------------------9----|
D|-9-------9----7----|-7-------|-7-------7----9----|-9-------|-%-----------5---------9----|
A|-7-------7----5----|-5-------|-5-------5----7----|-7-------|--------5---------5----7----|
E|-------------------|---------|-------------------|---------|----------------------------|

E|---------|---------|---------|---------------|---------|---------|---------|---------------|
B|---------|---------|---------|---------------|---------|---------|---------|---------------|
G|-9-------|-7-------|-4-------|-5------7------|-9-------|-7-------|-4-------|-5------7------|
D|-9-------|-7-------|-4-------|-5------7------|-9-------|-7-------|-4-------|-5------7------|
A|-7-------|-5-------|-2-------|-3------5------|-7-------|-5-------|-2-------|-3------5------|
E|---------|---------|---------|---------------|---------|---------|---------|---------------|

E|---------|---------|---------|---------------|---------|---------|---------|---------------|
B|---------|---------|---------|---------------|---------|---------|---------|---------------|
G|-9-------|-7-------|-4-------|-5------7------|-9-------|-7-------|-4-------|-5------7------|
D|-9-------|-7-------|-4-------|-5------7------|-9-------|-7-------|-4-------|-5------7------|
A|-7-------|-5-------|-2-------|-3------5------|-7-------|-5-------|-2-------|-3------5------|
E|---------|---------|---------|---------------|---------|---------|---------|---------------|

E|---------5---8---5---8---5---8---5---8---5-----------------------------------------------|
B|-5---8---------------------------------------8---5---8---5---8---5---8---5---8---5---8---|
G|-----------------------------------------------------------------------------------------|
D|-----------------------------------------------------------------------------------------|
A|-----------------------------------------------------------------------------------------|
E|-----------------------------------------------------------------------------------------|

E|----------------------------|-----------------------------------------|---------|
B|-3-----------3----2----1----|------2----1-----------------------------|---------|
G|--------%-------------------|-2--------------2------------------------|---------|
D|--------%-------------------|---------------------1-------------------|---------|
A|----------------------------|--------------------------5----3---------|---------|
E|----------------------------|------------------------------------5----|-5-------|

E|-------------------------------------------------5---7---5---7---5---7---5---7---5---7---5---7---|
B|-5---6---5---6---5---6---5---6---5---6---5---6---------------------------------------------------|
G|-------------------------------------------------------------------------------------------------|
D|-------------------------------------------------------------------------------------------------|
A|-------------------------------------------------------------------------------------------------|
E|-------------------------------------------------------------------------------------------------|

E|-------------------------5---7---5---7---5---7---7---8---7---8---7---8---8---10--8---10--8---10--|
B|-5---6---5---6---5---6---------------------------------------------------------------------------|
G|-------------------------------------------------------------------------------------------------|
D|-------------------------------------------------------------------------------------------------|
A|-------------------------------------------------------------------------------------------------|
E|-------------------------------------------------------------------------------------------------|

E|-10----10----10-----10--8---|-10------------|-15--12--12--10--12--10--8---7---8----7------|
B|----------------------------|---------15----|---------------------------------------------|
G|----------------------------|---------------|---------------------------------------------|
D|----------------------------|---------------|---------------------------------------------|
A|----------------------------|---------------|---------------------------------------------|
E|----------------------------|---------------|---------------------------------------------|

E|------10--12--10-------------------|---------|---------|-------------17-----12---|
B|-10---------------13---------------|---------|---------|--------15---------------|
G|-----------------------12-----12---|-12------|-12------|-12----------------------|
D|-----------------------------------|---------|---------|-------------------------|
A|-----------------------------------|---------|---------|-------------------------|
E|-----------------------------------|---------|---------|-------------------------|

E|-20-----17---15----19---22---|-22---22---20---19---17--19---------|-12------------------------------|
B|-----------------------------|-----------------------------20-----|------15---13---13---------------|
G|-----------------------------|------------------------------------|---------------------14---14-----|
D|-----------------------------|------------------------------------|---------------------------------|
A|-----------------------------|------------------------------------|---------------------------------|
E|-----------------------------|------------------------------------|---------------------------------|

E|---------------------------------------------------------------------|-------------------------------------|
B|---------------------------------------------------------------------|-------------------------------------|
G|-14--------------------------------7---------------------------------|-------------------------------------|
D|------9----7---9---7---9---7---9--------9----7---9---7---9---7---9---|-9-----------------------------------|
A|---------------------------------------------------------------------|------10---10----9----10---9----10---|
E|---------------------------------------------------------------------|-------------------------------------|

E|---------------------------------------------------------------------|-------------------------------------|
B|---------------------------------------------------------------------|-------------------------------------|
G|-----------------------------------7---------------------------------|-------------------------------------|
D|------9----7---9---7---9---7---9--------9----7---9---7---9---7---9---|-9-----------------------------------|
A|-10------------------------------------------------------------------|------10---10----9----10---9----10---|
E|---------------------------------------------------------------------|-------------------------------------|

E|---------------------------------------------------------------------|-------------------------------------|
B|---------------------------------------------------------------------|-------------------------------------|
G|-----------------------------------7---------------------------------|-------------------------------------|
D|------9----7---9---7---9---7---9--------9----7---9---7---9---7---9---|-9-----------------------------------|
A|-10------------------------------------------------------------------|------10---10----9----10---9----10---|
E|---------------------------------------------------------------------|-------------------------------------|

E|---------------------------------------------------------------------|-------------------------------------|
B|---------------------------------------------------------------------|-------------------------------------|
G|-----------------------------------7---------------------------------|-------------------------------------|
D|------9----7---9---7---9---7---9--------9----7---9---7---9---7---9---|-9-----------------------------------|
A|-10------------------------------------------------------------------|------10---10----9----10---9----10---|
E|---------------------------------------------------------------------|-------------------------------------|

E|-----------------------------------10--------------------------------|-------------------------------------|
B|------12---10--12--10--12--10--12-------12---10--12--10--12--10--12--|-12----------------------------------|
G|---------------------------------------------------------------------|------12---12----11---12---11---12---|
D|---------------------------------------------------------------------|-------------------------------------|
A|-10------------------------------------------------------------------|-------------------------------------|
E|---------------------------------------------------------------------|-------------------------------------|

E|-----------------------------------10--------------------------------|-------------------------------------|
B|------12---10--12--10--12--10--12-------12---10--12--10--12--10--12--|-12----------------------------------|
G|-12------------------------------------------------------------------|------12---12----11---12---11---12---|
D|---------------------------------------------------------------------|-------------------------------------|
A|---------------------------------------------------------------------|-------------------------------------|
E|---------------------------------------------------------------------|-------------------------------------|

E|-----------------------------------10--------------------------------|-------------------------------------|
B|------12---10--12--10--12--10--12-------12---10--12--10--12--10--12--|-12----------------------------------|
G|-12------------------------------------------------------------------|------12---12----11---12---11---12---|
D|---------------------------------------------------------------------|-------------------------------------|
A|---------------------------------------------------------------------|-------------------------------------|
E|---------------------------------------------------------------------|-------------------------------------|

E|-----------------------------------10--------------------------------|-------------------------------------|
B|------12---10--12--10--12--10--12-------12---10--12--10--12--10--12--|-12----------------------------------|
G|-12------------------------------------------------------------------|------12---12---------7--------------|
D|---------------------------------------------------------------------|-----------------7----5----7----9----|
A|---------------------------------------------------------------------|-----------------5---------5----7----|
E|---------------------------------------------------------------------|-------------------------------------|

E|-----------------------------------------------------|-----------------------------------------------|
B|-----------------------------------------------------|-----------------------------------------------|
G|-----------------------------------------------------|-----------------------------------------------|
D|-9------------9------------9------------9------------|-9------------9-----------------5---------9----|
A|-7----7---7---7----7---7---7----7---7---7----7---7---|-7----7---7---7----7---7---5---------5----7----|
E|-----------------------------------------------------|-----------------------------------------------|

E|-----------------------------------------------------|-----------------------------------------------|
B|-----------------------------------------------------|-----------------------------------------------|
G|-----------------------------------------------------|-----------------------------------------------|
D|-9------------9------------9------------9------------|-9------------9-----------------5---------5----|
A|-7----7---7---7----7---7---7----7---7---7----7---7---|-7----7---7---7----7---7---5---------5----3----|
E|-----------------------------------------------------|-----------------------------------------------|

E|-----------------------------------------------------|-----------------------------------------------|
B|-----------------------------------------------------|-----------------------------------------------|
G|-----------------------------------------------------|-----------------------------------------------|
D|-5------------5------------5------------5------------|-5------------5-----------------5---------9----|
A|-3----3---3---3----3---3---3----3---3---3----3---3---|-3----3---3---3----3---3---5---------5----7----|
E|-----------------------------------------------------|-----------------------------------------------|

E|-----------------------------------------------------|-----------------------------------------------|
B|-----------------------------------------------------|-----------------------------------------------|
G|-----------------------------------------------------|-----------------------------------------------|
D|-9------------9------------9------------9------------|-9------------9-----------------5---------9----|
A|-7----7---7---7----7---7---7----7---7---7----7---7---|-7----7---7---7----7---7---5---------5----7----|
E|-----------------------------------------------------|-----------------------------------------------|

E|-----------------------------------------------------|-----------------------------------------------|
B|-----------------------------------------------------|-----------------------------------------------|
G|-----------------------------------------------------|-----------------------------------------------|
D|-9------------9------------9------------9------------|-9------------9-----------------5---------9----|
A|-7----7---7---7----7---7---7----7---7---7----7---7---|-7----7---7---7----7---7---5---------5----7----|
E|-----------------------------------------------------|-----------------------------------------------|

E|-----------------------------------------------------|-----------------------------------------------|
B|-----------------------------------------------------|-----------------------------------------------|
G|-----------------------------------------------------|-----------------------------------------------|
D|-9------------9------------9------------9------------|-9------------9-----------------5---------5----|
A|-7----7---7---7----7---7---7----7---7---7----7---7---|-7----7---7---7----7---7---5---------5----3----|
E|-----------------------------------------------------|-----------------------------------------------|

E|-----------------------------------------------------|-----------------------------------------------|
B|-----------------------------------------------------|-----------------------------------------------|
G|-----------------------------------------------------|-----------------------------------------------|
D|-5------------5------------5------------5------------|-5------------5-----------------5---------9----|
A|-3----3---3---3----3---3---3----3---3---3----3---3---|-3----3---3---3----3---3---5---------5----7----|
E|-----------------------------------------------------|-----------------------------------------------|

E|-----------------------------------------------------|-----------------------------------------------|
B|-----------------------------------------------------|-----------------------------------------------|
G|-----------------------------------------------------|-----------------------------------------------|
D|-9------------9------------9------------9------------|-9------------9-----------------5---------7----|
A|-7----7---7---7----7---7---7----7---7---7----7---7---|-7----7---7---7----7---7---5---------5----5----|
E|-----------------------------------------------------|-----------------------------------------------|

E|---------|-------------------|---------|-------------------|---------|-------------------|
B|---------|-------------------|---------|-------------------|---------|-------------------|
G|---------|-------------------|---------|-------------------|---------|-------------------|
D|-7-------|-7-------7----9----|-9-------|-9-------9----7----|-7-------|-7-------7----9----|
A|-5-------|-5-------5----7----|-7-------|-7-------7----5----|-5-------|-5-------5----7----|
E|---------|-------------------|---------|-------------------|---------|-------------------|

E|---------|----------------------------|-----------------------------------------------|
B|---------|----------------------------|-----------------------------------------------|
G|---------|-%--------------------------|-----------------------------------------------|
D|-9-------|-%-----------5---------9----|-9---------------------------------------------|
A|-7-------|--------5---------5----7----|-7----7----7---5--------5----5----5---3--------|
E|---------|----------------------------|-------------------7----------------------5----|

E|--------------------------------------------|-----------------------------------------------|
B|--------------------------------------------|-----------------------------------------------|
G|--------------------------------------------|-----------------------------------------------|
D|-----------------------------5--------------|-----------------------------------------------|
A|-3----3----3---2--------5---------5----7----|-7----7----7---5--------5----5----5---3--------|
E|-------------------3------------------------|-------------------7----------------------5----|

E|--------------------------------------------|-----------------------------------------------|
B|--------------------------------------------|-----------------------------------------------|
G|--------------------------------------------|-----------------------------------------------|
D|-----------------------------5--------------|-----------------------------------------------|
A|-3----3----3---2--------5---------5----7----|-7----10---10--9--------9----9----9---7--------|
E|-------------------3------------------------|-------------------10---------------------8----|

E|--------------------------------------------|-----------------------------------------------|
B|--------------------------------------------|-----------------------------------------------|
G|--------------------------------------------|-----------------------------------------------|
D|-----------------------------9--------------|-----------------------------------------------|
A|-7----7----7---5--------9---------9----10---|-10---10---10--9--------9----9----9---7--------|
E|-------------------7------------------------|-------------------10---------------------8----|

E|--------------------------------------------|------------------------|
B|--------------------------------------------|------------------------|
G|--------------------------------------------|------%------%-----%----|
D|-----------------------------9---------9----|-9----%------%-----%----|
A|-7----7----7---5--------9---------9----7----|-7----------------------|
E|-------------------7------------------------|------------------------|
Iron Maiden - The Trooper (5)
Iron Maiden - The Trooper (5).gp3