Iron Maiden - The Trooper (7)

Iron Maiden - The Trooper (7)

Iron Maiden



Title: The Trooper
Album: Piece of Mind
Artist: Iron Maiden
Author: Steve Harris

Track 1: Guitar 1
E|---------|-----------------------------------------------|--------------------------------------------|
B|---------|-----------------------------------------------|--------------------------------------------|
G|-%-------|-----------------------------------------------|--------------------------------------------|
D|-%-------|-----------------------------------------------|-----------------------------5--------------|
A|---------|-7----7----7---5--------5----5----5---3--------|-3----3----3---2--------5---------5----7----|
E|---------|-------------------7----------------------5----|-------------------3------------------------|

E|-----------------------------------------------|--------------------------------------------|
B|-----------------------------------------------|--------------------------------------------|
G|-----------------------------------------------|--------------------------------------------|
D|-----------------------------------------------|-----------------------------5--------------|
A|-7----7----7---5--------5----5----5---3--------|-3----3----3---2--------5---------5----7----|
E|-------------------7----------------------5----|-------------------3------------------------|

E|-----------------------------------------------|--------------------------------------------|
B|-----------------------------------------------|--------------------------------------------|
G|-----------------------------------------------|--------------------------------------------|
D|------5----5---4--------4----4----4---2--------|-2----2----2---0-------------5--------------|
A|-7-----------------5----------------------3----|-------------------2----5---------5----7----|
E|-----------------------------------------------|--------------------------------------------|

E|-----------------------------------------------|--------------------------------------------|
B|-----------------------------------------------|--------------------------------------------|
G|-----------------------------------------------|--------------------------------------------|
D|------5----5---4--------4----4----4---2--------|-2----2----2---0-------------5--------------|
A|-7-----------------5----------------------3----|-------------------2----5---------5----7----|
E|-----------------------------------------------|--------------------------------------------|

E|-----------------------------------7---------------------------------|-------------------------------------|
B|------8----7---8---7---8---7---8--------8----7---8---7---8---7---8---|-8--------------------8--------------|
G|---------------------------------------------------------------------|------9----9-----7---------7----9----|
D|---------------------------------------------------------------------|-------------------------------------|
A|-7-------------------------------------------------------------------|-------------------------------------|
E|---------------------------------------------------------------------|-------------------------------------|

E|-----------------------------------7---------------------------------|-------------------------------------|
B|------8----7---8---7---8---7---8--------8----7---8---7---8---7---8---|-8--------------------8--------------|
G|-9-------------------------------------------------------------------|------9----9-----7---------7----9----|
D|---------------------------------------------------------------------|-------------------------------------|
A|---------------------------------------------------------------------|-------------------------------------|
E|---------------------------------------------------------------------|-------------------------------------|

E|-----------------------------------7---------------------------------|-------------------------------------|
B|------8----7---8---7---8---7---8--------8----7---8---7---8---7---8---|-8--------------------8--------------|
G|-9-------------------------------------------------------------------|------9----9-----7---------7----9----|
D|---------------------------------------------------------------------|-------------------------------------|
A|---------------------------------------------------------------------|-------------------------------------|
E|---------------------------------------------------------------------|-------------------------------------|

E|-----------------------------------7---------------------------------|-------------------------------------|
B|------8----7---8---7---8---7---8--------8----7---8---7---8---7---8---|-8--------------------8--------------|
G|-9-------------------------------------------------------------------|------9----9-----7---------7----9----|
D|---------------------------------------------------------------------|-------------------------------------|
A|---------------------------------------------------------------------|-------------------------------------|
E|---------------------------------------------------------------------|-------------------------------------|

E|-----------------------------------7---------------------------------|-------------------------------------|
B|------8----7---8---7---8---7---8--------8----7---8---7---8---7---8---|-8--------------------8--------------|
G|-9-------------------------------------------------------------------|------9----9-----7---------7----9----|
D|---------------------------------------------------------------------|-------------------------------------|
A|---------------------------------------------------------------------|-------------------------------------|
E|---------------------------------------------------------------------|-------------------------------------|

E|-----------------------------------7---------------------------------|-------------------------------------|
B|------8----7---8---7---8---7---8--------8----7---8---7---8---7---8---|-8--------------------8--------------|
G|-9-------------------------------------------------------------------|------9----9-----7---------7----9----|
D|---------------------------------------------------------------------|-------------------------------------|
A|---------------------------------------------------------------------|-------------------------------------|
E|---------------------------------------------------------------------|-------------------------------------|

E|-----------------------------------7---------------------------------|-------------------------------------|
B|------8----7---8---7---8---7---8--------8----7---8---7---8---7---8---|-8--------------------8--------------|
G|-9-------------------------------------------------------------------|------9----9-----7---------7----9----|
D|---------------------------------------------------------------------|-------------------------------------|
A|---------------------------------------------------------------------|-------------------------------------|
E|---------------------------------------------------------------------|-------------------------------------|

E|-----------------------------------7---------------------------------|-------------------------------------|
B|------8----7---8---7---8---7---8--------8----7---8---7---8---7---8---|-8-----------------------------------|
G|-9-------------------------------------------------------------------|------9----9----------7--------------|
D|---------------------------------------------------------------------|-----------------7----5----7----9----|
A|---------------------------------------------------------------------|-----------------5---------5----7----|
E|---------------------------------------------------------------------|-------------------------------------|

E|------------------------|----------------------------|------------------------|----------------------------|
B|------------------------|----------------------------|------------------------|----------------------------|
G|------%------%-----%----|-%-----------7--------------|------%------%-----%----|-%-----------7--------------|
D|-9----%------%-----%----|-%------7----5----7----9----|-9----%------%-----%----|-%------7----5----7----5----|
A|-7----------------------|--------5---------5----7----|-7----------------------|--------5---------5----3----|
E|------------------------|----------------------------|------------------------|----------------------------|

E|------------------------|----------------------------|------------------------|----------------------------|
B|------------------------|----------------------------|------------------------|----------------------------|
G|------%------%-----%----|-%-----------7--------------|------%------%-----%----|-%-----------7--------------|
D|-5----%------%-----%----|-%------7----5----7----9----|-9----%------%-----%----|-%------7----5----7----9----|
A|-3----------------------|--------5---------5----7----|-7----------------------|--------5---------5----7----|
E|------------------------|----------------------------|------------------------|----------------------------|

E|-----------------------------------------------------|-----------------------------------------------|
B|-----------------------------------------------------|-----------------------------------------------|
G|-----------------------------------------------------|--------------------------------7--------------|
D|-9------------9------------9------------9------------|-9------------9------------7----5----7----9----|
A|-7----7---7---7----7---7---7----7---7---7----7---7---|-7----7---7---7----7---7---5---------5----7----|
E|-----------------------------------------------------|-----------------------------------------------|

E|-----------------------------------------------------|-----------------------------------------------|
B|-----------------------------------------------------|-----------------------------------------------|
G|-----------------------------------------------------|--------------------------------7--------------|
D|-9------------9------------9------------9------------|-9------------9------------7----5----7----5----|
A|-7----7---7---7----7---7---7----7---7---7----7---7---|-7----7---7---7----7---7---5---------5----3----|
E|-----------------------------------------------------|-----------------------------------------------|

E|-----------------------------------------------------|-----------------------------------------------|
B|-----------------------------------------------------|-----------------------------------------------|
G|-----------------------------------------------------|--------------------------------7--------------|
D|-5------------5------------5------------5------------|-5------------5------------7----5----7----9----|
A|-3----3---3---3----3---3---3----3---3---3----3---3---|-3----3---3---3----3---3---5---------5----7----|
E|-----------------------------------------------------|-----------------------------------------------|

E|-----------------------------------------------------|-----------------------------------------------|
B|-----------------------------------------------------|-----------------------------------------------|
G|-----------------------------------------------------|--------------------------------7--------------|
D|-9------------9------------9------------9------------|-9------------9------------7----5----7----7----|
A|-7----7---7---7----7---7---7----7---7---7----7---7---|-7----7---7---7----7---7---5---------5----5----|
E|-----------------------------------------------------|-----------------------------------------------|

E|---------|----------------------|-----------------------------------------------------|
B|---------|----------------------|-----------------------------------------------------|
G|---------|-------------%--------|-----------------------------------------------------|
D|-7-------|-7-------7---%---2----|-2------------2------------2------------2------------|
A|-5-------|-5-------5-------2----|-2------------2------------2------------2------------|
E|---------|-----------------0----|-0----0---0---0----0---0---0----0---0---0----0---0---|

E|--------------------------------------------------|---------|----------------------|
B|--------------------------------------------------|---------|----------------------|
G|--------------------------------------------------|---------|-------------%--------|
D|-2------------2------------2------------2----7----|-7-------|-7-------7---%---2----|
A|-2------------2------------2------------2----5----|-5-------|-5-------5-------2----|
E|-0----0---0---0----0---0---0----0---0---0---------|---------|-----------------0----|

E|-----------------------------------------------------|----------------------------------------|
B|-----------------------------------------------------|----------------------------------------|
G|-----------------------------------------------------|-------------------------7--------------|
D|-2------------2------------2------------2------------|-2------------2-----7----5----7----9----|
A|-2------------2------------2------------2------------|-2------------2-----5---------5----7----|
E|-0----0---0---0----0---0---0----0---0---0----0---0---|-0----0---0---0-------------------------|

E|-----------------------------------7---------------------------------|-------------------------------------|
B|------8----7---8---7---8---7---8--------8----7---8---7---8---7---8---|-8--------------------8--------------|
G|---------------------------------------------------------------------|------9----9-----7---------7----9----|
D|-9-------------------------------------------------------------------|-------------------------------------|
A|-7-------------------------------------------------------------------|-------------------------------------|
E|---------------------------------------------------------------------|-------------------------------------|

E|-----------------------------------7---------------------------------|-------------------------------------|
B|------8----7---8---7---8---7---8--------8----7---8---7---8---7---8---|-8--------------------8--------------|
G|-9-------------------------------------------------------------------|------9----9-----7---------7----9----|
D|---------------------------------------------------------------------|-------------------------------------|
A|---------------------------------------------------------------------|-------------------------------------|
E|---------------------------------------------------------------------|-------------------------------------|

E|-----------------------------------7---------------------------------|-------------------------------------|
B|------8----7---8---7---8---7---8--------8----7---8---7---8---7---8---|-8--------------------8--------------|
G|-9-------------------------------------------------------------------|------9----9-----7---------7----9----|
D|---------------------------------------------------------------------|-------------------------------------|
A|---------------------------------------------------------------------|-------------------------------------|
E|---------------------------------------------------------------------|-------------------------------------|

E|-----------------------------------7---------------------------------|-------------------------------------|
B|------8----7---8---7---8---7---8--------8----7---8---7---8---7---8---|-8--------------------8--------------|
G|-9-------------------------------------------------------------------|------9----9-----7---------7----9----|
D|---------------------------------------------------------------------|-------------------------------------|
A|---------------------------------------------------------------------|-------------------------------------|
E|---------------------------------------------------------------------|-------------------------------------|

E|-----------------------------------7---------------------------------|-------------------------------------|
B|------8----7---8---7---8---7---8--------8----7---8---7---8---7---8---|-8--------------------8--------------|
G|-9-------------------------------------------------------------------|------9----9-----7---------7----9----|
D|---------------------------------------------------------------------|-------------------------------------|
A|---------------------------------------------------------------------|-------------------------------------|
E|---------------------------------------------------------------------|-------------------------------------|

E|-----------------------------------7---------------------------------|-------------------------------------|
B|------8----7---8---7---8---7---8--------8----7---8---7---8---7---8---|-8--------------------8--------------|
G|-9-------------------------------------------------------------------|------9----9-----7---------7----9----|
D|---------------------------------------------------------------------|-------------------------------------|
A|---------------------------------------------------------------------|-------------------------------------|
E|---------------------------------------------------------------------|-------------------------------------|

E|-----------------------------------7---------------------------------|-------------------------------------|
B|------8----7---8---7---8---7---8--------8----7---8---7---8---7---8---|-8--------------------8--------------|
G|-9-------------------------------------------------------------------|------9----9-----7---------7----9----|
D|---------------------------------------------------------------------|-------------------------------------|
A|---------------------------------------------------------------------|-------------------------------------|
E|---------------------------------------------------------------------|-------------------------------------|

E|-----------------------------------7---------------------------------|-------------------------------------|
B|------8----7---8---7---8---7---8--------8----7---8---7---8---7---8---|-8-----------------------------------|
G|-9-------------------------------------------------------------------|------9----9----------7--------------|
D|---------------------------------------------------------------------|-----------------7----5----7----9----|
A|---------------------------------------------------------------------|-----------------5---------5----5----|
E|---------------------------------------------------------------------|-------------------------------------|

E|-----------------------------------------------------|-----------------------------------------------|
B|-----------------------------------------------------|-----------------------------------------------|
G|-----------------------------------------------------|--------------------------------7--------------|
D|-9------------9------------9------------9------------|-9------------9------------7----5----7----9----|
A|------7---7---7----7---7---7----7---7---7----7---7---|-7----7---7---7----7---7---5---------5----7----|
E|-----------------------------------------------------|-----------------------------------------------|

E|-----------------------------------------------------|-----------------------------------------------|
B|-----------------------------------------------------|-----------------------------------------------|
G|-----------------------------------------------------|--------------------------------7--------------|
D|-9------------9------------9------------9------------|-9------------9------------7----5----7----5----|
A|-7----7---7---7----7---7---7----7---7---7----7---7---|-7----7---7---7----7---7---5---------5----3----|
E|-----------------------------------------------------|-----------------------------------------------|

E|-----------------------------------------------------|-----------------------------------------------|
B|-----------------------------------------------------|-----------------------------------------------|
G|-----------------------------------------------------|--------------------------------7--------------|
D|-5------------5------------5------------5------------|-5------------5------------7----5----7----9----|
A|-3----3---3---3----3---3---3----3---3---3----3---3---|-3----3---3---3----3---3---5---------5----7----|
E|-----------------------------------------------------|-----------------------------------------------|

E|-----------------------------------------------------|-----------------------------------------------|
B|-----------------------------------------------------|-----------------------------------------------|
G|-----------------------------------------------------|--------------------------------7--------------|
D|-9------------9------------9------------9------------|-9------------9------------7----5----7----9----|
A|-7----7---7---7----7---7---7----7---7---7----7---7---|-7----7---7---7----7---7---5---------5----7----|
E|-----------------------------------------------------|-----------------------------------------------|

E|-----------------------------------------------------|-----------------------------------------------|
B|-----------------------------------------------------|-----------------------------------------------|
G|-----------------------------------------------------|--------------------------------7--------------|
D|-9------------9------------9------------9------------|-9------------9------------7----5----7----9----|
A|-7----7---7---7----7---7---7----7---7---7----7---7---|-7----7---7---7----7---7---5---------5----7----|
E|-----------------------------------------------------|-----------------------------------------------|

E|-----------------------------------------------------|-----------------------------------------------|
B|-----------------------------------------------------|-----------------------------------------------|
G|-----------------------------------------------------|--------------------------------7--------------|
D|-9------------9------------9------------9------------|-9------------9------------7----5----7----5----|
A|-7----7---7---7----7---7---7----7---7---7----7---7---|-7----7---7---7----7---7---5---------5----3----|
E|-----------------------------------------------------|-----------------------------------------------|

E|-----------------------------------------------------|-----------------------------------------------|
B|-----------------------------------------------------|-----------------------------------------------|
G|-----------------------------------------------------|--------------------------------7--------------|
D|-5------------5------------5------------5------------|-5------------5------------7----5----7----9----|
A|-3----3---3---3----3---3---3----3---3---3----3---3---|-3----3---3---3----3---3---5---------5----7----|
E|-----------------------------------------------------|-----------------------------------------------|

E|-----------------------------------------------------|-----------------------------------------------|
B|-----------------------------------------------------|-----------------------------------------------|
G|-----------------------------------------------------|--------------------------------7--------------|
D|-9------------9------------9------------9------------|-9------------9------------7----5----7----7----|
A|-7----7---7---7----7---7---7----7---7---7----7---7---|-7----7---7---7----7---7---5---------5----5----|
E|-----------------------------------------------------|-----------------------------------------------|

E|---------|----------------------|-----------------------------------------------------|
B|---------|----------------------|-----------------------------------------------------|
G|---------|-------------%--------|-----------------------------------------------------|
D|-7-------|-7-------7---%---2----|-2------------2------------2------------2------------|
A|-5-------|-5-------5-------2----|-2------------2------------2------------2------------|
E|---------|-----------------0----|-0----0---0---0----0---0---0----0---0---0----0---0---|

E|--------------------------------------------------|---------|----------------------|
B|--------------------------------------------------|---------|----------------------|
G|--------------------------------------------------|---------|-------------%--------|
D|-2------------2------------2------------2----7----|-7-------|-7-------7---%---2----|
A|-2------------2------------2------------2----5----|-5-------|-5-------5-------2----|
E|-0----0---0---0----0---0---0----0---0---0---------|---------|-----------------0----|

E|-----------------------------------------------------|------------------------|---------------------|
B|-----------------------------------------------------|-------------------15---|-15-----15-----15----|
G|-----------------------------------------------------|-%------%-----%---------|---------------------|
D|-2------------2------------2------------2------------|-%------%-----%---------|---------------------|
A|-2------------2------------2------------2------------|------------------------|---------------------|
E|-0----0---0---0----0---0---0----0---0---0----0---0---|------------------------|---------------------|

E|---------------------------15---|-15-----15--12--------------------|--------------------------------|
B|-15--12--15-----15----12--------|----------------------------------|--------------------------------|
G|--------------------------------|----------------15---14--12-------|---------------------------14---|
D|-----2--------------------------|-----------------------------14---|-14----12--10--9----9-----------|
A|-----2--------------------------|----------------------------------|--------------------------------|
E|--------------------------------|----------------------------------|--------------------------------|

E|----------------------------------------------|-------------------------------------------------------------|
B|--------12--15-------12---15--------12---15---|------12---15--------12---15--------12---15--------12---15---|
G|-14-------------14-------------14-------------|-14-------------14-------------14-------------14-------------|
D|----------------------------------------------|-------------------------------------------------------------|
A|----------------------------------------------|-------------------------------------------------------------|
E|----------------------------------------------|-------------------------------------------------------------|

E|---------------------------------------------------------------------|-------------------------|
B|-----12--15------12--15------12--15------12--15----------------------|--------------------17---|
G|-14----------14----------14----------14----------14--14--14--12------|-------------------------|
D|-9---------------------------------------------------------------14--|-14---12-----12----------|
A|---------------------------------------------------------------------|-------------------------|
E|---------------------------------------------------------------------|-------------------------|

E|-----15--19--15--17--15------15--19--15--17--15------15--19--15--|-17--15------15--19--15--17--15------15--19--15--17--15------15--|
B|-17----------------------17----------------------17--------------|---------17----------------------17----------------------17------|
G|-----------------------------------------------------------------|-----------------------------------------------------------------|
D|-----------------------------------------------------------------|-----------------------------------------------------------------|
A|-----------------------------------------------------------------|-----------------------------------------------------------------|
E|-----------------------------------------------------------------|-----------------------------------------------------------------|

E|-19--15--17--15------15--19--15--17--15------15--20----|-20---20----20---20---20----20---|
B|-----------------17----------------------17------------|---------------------------------|
G|-------------------------------------------------------|---------------------------------|
D|-------------------------------------------------------|---------------------------------|
A|-------------------------------------------------------|---------------------------------|
E|-------------------------------------------------------|---------------------------------|

E|-20--20--20-----19---20--17--19-------17--|----------------------|----------------12---------12-----------|
B|----------------------------------20------|-19--20--17---17------|-----------12--------15--------15--12---|
G|------------------------------------------|----------------------|-%----14--------------------------------|
D|------------------------------------------|----------------------|-%--------------------------------------|
A|------------------------------------------|----------------------|----------------------------------------|
E|------------------------------------------|----------------------|----------------------------------------|

E|------------------------------------------|-8---5---8---5---8---5---8---5-----------------------------------|
B|-15--15--12-----------------------5---8---|---------------------------------8---5---8---5---8---5---8---5---|
G|--------------14--12----------------------|-----------------------------------------------------------------|
D|----------------------14------------------|-----------------------------------------------------------------|
A|---------------------------14-------------|-----------------------------------------------------------------|
E|------------------------------------------|-----------------------------------------------------------------|

E|---------------------------------|-----------------------------------------|----------------------|
B|---------------------------------|-----------------------------------------|----------------------|
G|-7-----7-----7----7----6----5----|------6----5-----------------------------|--------------9---11--|
D|---------------------------------|-7--------------7------------------------|----------------------|
A|---------------------------------|---------------------5----4--------------|----------------------|
E|---------------------------------|-------------------------------8----5----|-5-------5------------|

E|-----------------------------------------------------------|-----------------------------------------------------------|
B|----------------------10--12--10--12--10--12--10-----------|------10--12--10--12--10--12--13--12--13--12--13------15---|
G|-9---11--9---11--9---------------------------------9---11--|-9------------------------------------------------14-------|
D|-----------------------------------------------------------|-----------------------------------------------------------|
A|-----------------------------------------------------------|-----------------------------------------------------------|
E|-----------------------------------------------------------|-----------------------------------------------------------|

E|-------------------------------------|-------------12--15--12--15--12--15--12--15--|
B|-15----15---15---15---15---13---15---|-15------------------------------------------|
G|-------------------------------------|-------%-------------------------------------|
D|-------------------------------------|-------%-------------------------------------|
A|-------------------------------------|---------------------------------------------|
E|-------------------------------------|---------------------------------------------|

E|-12--15--12--15-----------------------------------|-10--12--10--12--10--12-------------------|
B|-----------------15---13--12--13-------------12---|-------------------------13---13----------|
G|-----------------------------------%----%---------|------------------------------------9-----|
D|-----------------------------------%----%---------|------------------------------------------|
A|--------------------------------------------------|------------------------------------------|
E|--------------------------------------------------|------------------------------------------|

E|--------------------|----------------------------|---------------------12---12--------20---|
B|--------------------|----------------------------|----------------20-------------17--------|
G|-9-----9-----9------|-19-----19---12---17---19---|-19---19---17----------------------------|
D|--------------------|----------------------------|-----------------------------------------|
A|--------------------|----------------------------|-----------------------------------------|
E|--------------------|----------------------------|-----------------------------------------|

E|-20---20---17-------------------20---|-20---20---19---17---------------|---------------------------------|
B|----------------20---20----17--------|---------------------20----------|---------------------------------|
G|-------------------------------------|--------------------------19-----|-19---19---17---17---------%-----|
D|-------------------------------------|---------------------------------|---------------------19----%-----|
A|-------------------------------------|---------------------------------|---------------------------------|
E|-------------------------------------|---------------------------------|---------------------------------|

E|-----------------------------------7---------------------------------|-------------------------------------|
B|------8----7---8---7---8---7---8--------8----7---8---7---8---7---8---|-8--------------------8--------------|
G|---------------------------------------------------------------------|------9----9-----7---------7----9----|
D|-19------------------------------------------------------------------|-------------------------------------|
A|---------------------------------------------------------------------|-------------------------------------|
E|---------------------------------------------------------------------|-------------------------------------|

E|-----------------------------------7---------------------------------|-------------------------------------|
B|------8----7---8---7---8---7---8--------8----7---8---7---8---7---8---|-8--------------------8--------------|
G|-9-------------------------------------------------------------------|------9----9-----7---------7----9----|
D|---------------------------------------------------------------------|-------------------------------------|
A|---------------------------------------------------------------------|-------------------------------------|
E|---------------------------------------------------------------------|-------------------------------------|

E|-----------------------------------7---------------------------------|-------------------------------------|
B|------8----7---8---7---8---7---8--------8----7---8---7---8---7---8---|-8--------------------8--------------|
G|-9-------------------------------------------------------------------|------9----9-----7---------7----9----|
D|---------------------------------------------------------------------|-------------------------------------|
A|---------------------------------------------------------------------|-------------------------------------|
E|---------------------------------------------------------------------|-------------------------------------|

E|-----------------------------------7---------------------------------|-------------------------------------|
B|------8----7---8---7---8---7---8--------8----7---8---7---8---7---8---|-8--------------------8--------------|
G|-9-------------------------------------------------------------------|------9----9-----7---------7----9----|
D|---------------------------------------------------------------------|-------------------------------------|
A|---------------------------------------------------------------------|-------------------------------------|
E|---------------------------------------------------------------------|-------------------------------------|

E|-----------------------------------7---------------------------------|-------------------------------------|
B|------8----7---8---7---8---7---8--------8----7---8---7---8---7---8---|-8--------------------8--------------|
G|-9-------------------------------------------------------------------|------9----9-----7---------7----9----|
D|---------------------------------------------------------------------|-------------------------------------|
A|---------------------------------------------------------------------|-------------------------------------|
E|---------------------------------------------------------------------|-------------------------------------|

E|-----------------------------------7---------------------------------|-------------------------------------|
B|------8----7---8---7---8---7---8--------8----7---8---7---8---7---8---|-8--------------------8--------------|
G|-9-------------------------------------------------------------------|------9----9-----7---------7----9----|
D|---------------------------------------------------------------------|-------------------------------------|
A|---------------------------------------------------------------------|-------------------------------------|
E|---------------------------------------------------------------------|-------------------------------------|

E|-----------------------------------7---------------------------------|-------------------------------------|
B|------8----7---8---7---8---7---8--------8----7---8---7---8---7---8---|-8--------------------8--------------|
G|-9-------------------------------------------------------------------|------9----9-----7---------7----9----|
D|---------------------------------------------------------------------|-------------------------------------|
A|---------------------------------------------------------------------|-------------------------------------|
E|---------------------------------------------------------------------|-------------------------------------|

E|-----------------------------------7---------------------------------|-------------------------------------|
B|------8----7---8---7---8---7---8--------8----7---8---7---8---7---8---|-8-----------------------------------|
G|-9-------------------------------------------------------------------|------9----9----------7--------------|
D|---------------------------------------------------------------------|-----------------7----5----7----9----|
A|---------------------------------------------------------------------|-----------------5---------5----7----|
E|---------------------------------------------------------------------|-------------------------------------|

E|-----------------------------------------------------|-----------------------------------------------|
B|-----------------------------------------------------|-----------------------------------------------|
G|-----------------------------------------------------|--------------------------------7--------------|
D|-9------------9------------9------------9------------|-9------------9------------7----5----7----9----|
A|-7----7---7---7----7---7---7----7---7---7----7---7---|-7----7---7---7----7---7---5---------5----7----|
E|-----------------------------------------------------|-----------------------------------------------|

E|-----------------------------------------------------|-----------------------------------------------|
B|-----------------------------------------------------|-----------------------------------------------|
G|-----------------------------------------------------|--------------------------------7--------------|
D|-9------------9------------9------------9------------|-9------------9------------7----5----7----5----|
A|-7----7---7---7----7---7---7----7---7---7----7---7---|-7----7---7---7----7---7---5---------5----3----|
E|-----------------------------------------------------|-----------------------------------------------|

E|-----------------------------------------------------|-----------------------------------------------|
B|-----------------------------------------------------|-----------------------------------------------|
G|-----------------------------------------------------|--------------------------------7--------------|
D|-5------------5------------5------------5------------|-5------------5------------7----5----7----9----|
A|-3----3---3---3----3---3---3----3---3---3----3---3---|-3----3---3---3----3---3---5---------5----7----|
E|-----------------------------------------------------|-----------------------------------------------|

E|-----------------------------------------------------|-----------------------------------------------|
B|-----------------------------------------------------|-----------------------------------------------|
G|-----------------------------------------------------|--------------------------------7--------------|
D|-9------------9------------9------------9------------|-9------------9------------7----5----7----9----|
A|-7----7---7---7----7---7---7----7---7---7----7---7---|-7----7---7---7----7---7---5---------5----7----|
E|-----------------------------------------------------|-----------------------------------------------|

E|-----------------------------------------------------|-----------------------------------------------|
B|-----------------------------------------------------|-----------------------------------------------|
G|-----------------------------------------------------|--------------------------------7--------------|
D|-9------------9------------9------------9------------|-9------------9------------7----5----7----9----|
A|-7----7---7---7----7---7---7----7---7---7----7---7---|-7----7---7---7----7---7---5---------5----7----|
E|-----------------------------------------------------|-----------------------------------------------|

E|-----------------------------------------------------|-----------------------------------------------|
B|-----------------------------------------------------|-----------------------------------------------|
G|-----------------------------------------------------|--------------------------------7--------------|
D|-9------------9------------9------------9------------|-9------------9------------7----5----7----5----|
A|-7----7---7---7----7---7---7----7---7---7----7---7---|-7----7---7---7----7---7---5---------5----3----|
E|-----------------------------------------------------|-----------------------------------------------|

E|-----------------------------------------------------|-----------------------------------------------|
B|-----------------------------------------------------|-----------------------------------------------|
G|-----------------------------------------------------|--------------------------------7--------------|
D|-5------------5------------5------------5------------|-5------------5------------7----5----7----9----|
A|-3----3---3---3----3---3---3----3---3---3----3---3---|-3----3---3---3----3---3---5---------5----7----|
E|-----------------------------------------------------|-----------------------------------------------|

E|-----------------------------------------------------|-----------------------------------------------|
B|-----------------------------------------------------|-----------------------------------------------|
G|-----------------------------------------------------|--------------------------------7--------------|
D|-9------------9------------9------------9------------|-9------------9------------7----5----7----7----|
A|-7----7---7---7----7---7---7----7---7---7----7---7---|-7----7---7---7----7---7---5---------5----5----|
E|-----------------------------------------------------|-----------------------------------------------|

E|---------|----------------------|-----------------------------------------------------|
B|---------|----------------------|-----------------------------------------------------|
G|---------|-------------%--------|-----------------------------------------------------|
D|-7-------|-7-------7---%---2----|-2------------2------------2------------2------------|
A|-5-------|-5-------5-------2----|-2------------2------------2------------2------------|
E|---------|-----------------0----|-0----0---0---0----0---0---0----0---0---0----0---0---|

E|--------------------------------------------------|---------|----------------------|
B|--------------------------------------------------|---------|----------------------|
G|--------------------------------------------------|---------|-------------%--------|
D|-2------------2------------2------------2----7----|-7-------|-7-------7---%---2----|
A|-2------------2------------2------------2----5----|-5-------|-5-------5-------2----|
E|-0----0---0---0----0---0---0----0---0---0---------|---------|-----------------0----|

E|-----------------------------------------------------|----------------------------------------|
B|-----------------------------------------------------|----------------------------------------|
G|-----------------------------------------------------|-------------------------7--------------|
D|-2------------2------------2------------2------------|-2------------2-----7----5----7----9----|
A|-2------------2------------2------------2------------|-2------------2-----5---------5----7----|
E|-0----0---0---0----0---0---0----0---0---0----0---0---|-0----0---0---0-------------------------|

E|-----------------------------------------------|--------------------------------------------|
B|-----------------------------------------------|--------------------------------------------|
G|-----------------------------------------------|--------------------------------------------|
D|-9---------------------------------------------|-----------------------------5--------------|
A|-7----7----7---5--------5----5----5---3--------|-3----3----3---2--------5---------5----7----|
E|-------------------7----------------------5----|-------------------3------------------------|

E|-----------------------------------------------|--------------------------------------------|
B|-----------------------------------------------|--------------------------------------------|
G|-----------------------------------------------|--------------------------------------------|
D|-----------------------------------------------|-----------------------------5--------------|
A|-7----7----7---5--------5----5----5---3--------|-3----3----3---2--------5---------5----7----|
E|-------------------7----------------------5----|-------------------3------------------------|

E|-----------------------------------------------|--------------------------------------------|
B|-----------------------------------------------|--------------------------------------------|
G|-----------------------------------------------|--------------------------------------------|
D|-----------------------------------------------|-----------------------------5--------------|
A|-7----7----7---5--------5----5----5---3--------|-3----3----3---2--------5---------5----7----|
E|-------------------7----------------------5----|-------------------3------------------------|

E|-----------------------------------------------|--------------------------------------------|
B|-----------------------------------------------|--------------------------------------------|
G|-----------------------------------------------|-----------------------------7--------------|
D|-----------------------------------------------|------------------------7----5----7----9----|
A|-7----7----7---5--------5----5----5---3--------|-3----3----3---2--------5---------5----7----|
E|-------------------7----------------------5----|-------------------3------------------------|

E|--------------------|---------|
B|--------------------|---------|
G|-------%------%-----|-%-------|
D|-9-----%------%-----|-%-------|
A|-7------------------|---------|
E|--------------------|---------|
Iron Maiden - The Trooper (7)
Iron Maiden - The Trooper (7).gp3