Iron Maiden - The Unbeliever

Iron Maiden - The Unbeliever

Iron Maiden



Title: The Unbeliever
Album: The X Factor
Artist: Iron Maiden
Author: 

Track 1: Rhythm & Solo2 (Dist.)
E|--------------------------------------------------------------|-------------------------------------------------------|
B|--------------------------------------------------------------|-------------------------------------------------------|
G|--------------9-----------7---7-------9-------7-------7---9---|-----------------9-----------7---7-------9---7---------|
D|------7---9-------9---7-----------7-------7-------7-----------|---------7---9-------9---7-----------7-----------9-----|
A|-7------------------------------------------------------------|-7---7-------------------------------------------------|
E|--------------------------------------------------------------|-------------------------------------------------------|

E|-----------------------------------------------------------------|----------------------------------------------------------|
B|-----------------------------------------------------------------|-----------------------------------------8--10--8---------|
G|-----------------9-----------7---7-------9-------7-------7---9---|-----------------9-----------7---7------------------9-----|
D|---------7---9-------9---7-----------7-------7-------7-----------|---------7---9-------9---7-----------9--------------------|
A|-7---7-----------------------------------------------------------|-7---7----------------------------------------------------|
E|-----------------------------------------------------------------|----------------------------------------------------------|

E|----------------------------------------------------------------|--------------------------------------------------|
B|----------------------------------------------------------------|--------------------------------------------------|
G|-----------------------7---7---7---7---5---5----5---5---5---5---|-5------------------------------------------------|
D|-----7--7--7---7---7--------------------------------------------|-----5--5--5---5---5------------------------------|
A|-7--------------------------------------------------------------|-----------------------5---5---5---5--------------|
E|----------------------------------------------------------------|---------------------------------------5---5------|

E|---------------------------------|-----------------------------------------|---------------------------------|
B|---------------------------------|-----------------------------------------|---------------------------------|
G|-9----9----%-----12---11---%-----|-7----9----%----5----7----4----5---------|-9----9----%-----12---11---%-----|
D|-X----X----%-----X----X----%-----|-X----X----%----X----X----X----X----X----|-X----X----%-----X----X----%-----|
A|-7----7----------10---9----------|-5----7---------3----5----2----3---------|-7----7----------10---9----------|
E|---------------------------------|-----------------------------------------|---------------------------------|

E|------------------------------------------|---------------------------------|-------------------------------------|
B|------------------------------------------|---------------------------------|-------------------------------------|
G|-7----9----%-----5----7----4----5----4----|-9----9----%-----12---11---%-----|-7----9----%-----5----7----4----5----|
D|-X----X----%-----X----X----X----X----X----|-X----X----%-----X----X----%-----|-X----X----%-----X----X----X----X----|
A|-5----7----------3----5----2----3----2----|-7----7----------10---9----------|-5----7----------3----5----2----3----|
E|------------------------------------------|---------------------------------|-------------------------------------|

E|---------------------------------|-----------------------------------------|-0-------|
B|---------------------------------|-----------------------------------------|-0-------|
G|-9----9----%-----12---11---%-----|-7----9----4----5----7----4----5----4----|-2-------|
D|-X----X----%-----X----X----%-----|-X----X----X----X----X----X----X----X----|-2-------|
A|-7----7----------10---9----------|-5----7----2----3----5----2----3----2----|---------|
E|---------------------------------|-----------------------------------------|---------|

E|-0-------|-0-------|-0-------|-0-------|-0-------|-0-------|-0-------|---------------------------------|
B|-0-------|-0-------|-0-------|-0-------|-0-------|-0-------|-0-------|---------------------------------|
G|-2-------|-2-------|-4-------|-2-------|-2-------|-2-------|-4-------|-9----9----%-----12---11---%-----|
D|-3-------|-4-------|-5-------|-2-------|-3-------|-4-------|-5-------|-X----X----%-----X----X----%-----|
A|---------|---------|---------|---------|---------|---------|---------|-7----7----------10---9----------|
E|---------|---------|---------|---------|---------|---------|---------|---------------------------------|

E|-------------------------------------|---------------------------------|-------------------------------------|
B|-------------------------------------|---------------------------------|-------------------------------------|
G|-7----9----%-----5----7----4----5----|-9----9----%-----12---11---%-----|-7----9----4----5----4----5----4-----|
D|-X----X----%-----X----X----X----X----|-X----X----%-----X----X----%-----|-X----X----X----X----X----X----X-----|
A|-5----7----------3----5----2----3----|-7----7----------10---9----------|-5----7----2----3----2----3----2-----|
E|-------------------------------------|---------------------------------|-------------------------------------|

E|-0-------|-0-------|-0-------|-0-------|-0-------|-0-------|-0-------|-0-------|-0-------|
B|-0-------|-0-------|-0-------|-0-------|-0-------|-0-------|-0-------|-0-------|-3-------|
G|-2-------|-2-------|-2-------|-4-------|-2-------|-2-------|-2-------|-4-------|-2-------|
D|-2-------|-3-------|-4-------|-5-------|-2-------|-3-------|-4-------|-5-------|-0-------|
A|---------|---------|---------|---------|---------|---------|---------|---------|---------|
E|---------|---------|---------|---------|---------|---------|---------|---------|---------|

E|-0-------|-0-------|-0-------|-0-------|-0-------|-0-------|-0-------|-----------------------------------------------------------------|
B|-3-------|-3-------|-5-------|-3-------|-3-------|-3-------|-5-------|-----------------------------------------------------------------|
G|-3-------|-4-------|-5-------|-2-------|-3-------|-4-------|-5-------|-------------------------%---------------------------------------|
D|-0-------|-0-------|-0-------|-0-------|-0-------|-0-------|-0-------|-----2---5---4---0---2---%---5---5---4---0---2---5---4---0---2---|
A|---------|---------|---------|---------|---------|---------|---------|-----------------------------------------------------------------|
E|---------|---------|---------|---------|---------|---------|---------|-0---------------------------------------------------------------|

E|--------------------------------------------------------------|-----------------------------------------------------------------|
B|--------------------------------------------------------------|-----------------------------------------------------------------|
G|-------------------------%-----------------------2------------|-------------------------%---------------------------------------|
D|-----2---5---4---2---4---%---5---5---4---0---2-------5---4----|-----2---5---4---0---2---%---5---5---4---0---2---5---4---0---2---|
A|--------------------------------------------------------------|-----------------------------------------------------------------|
E|-0------------------------------------------------------------|-0---------------------------------------------------------------|

E|--------------------------------------------------------------|-------------------------|
B|--------------------------------------------------------------|-------------------------|
G|-------------------------%-----------------------2------------|--------4----4-----2-----|
D|-----2---5---4---2---4---%---5---5---4---0---2-------5---4----|-2-----------------------|
A|--------------------------------------------------------------|-------------------------|
E|-0------------------------------------------------------------|-------------------------|

E|-------------------------------------|-------------------------|-------------------------------------|
B|-------------------------------------|-------------------------|-------------------------------------|
G|-2-----------------------------------|-------------------------|-------------------------------------|
D|------4-----4----4----5----4---------|--------5----5-----4-----|-4---------------4----5----4---------|
A|--------------------------------5----|-3-----------------------|------5-----5-------------------5----|
E|-------------------------------------|-------------------------|-------------------------------------|

E|-------------------------|-------------------------------------|-------------------------|
B|-------------------------|-------------------------------------|-------------------------|
G|--------4----4-----2-----|-2-----------------------------------|-------------------------|
D|-2-----------------------|------4-----4----4----5----4---------|--------5----5-----4-----|
A|-------------------------|--------------------------------5----|-3-----------------------|
E|-------------------------|-------------------------------------|-------------------------|

E|-------------------------------------|-------------------------|-------------------------------------|
B|-------------------------------------|-------------------------|-------------------------------------|
G|-------------------------------------|--------4----4-----2-----|-2-----------------------------------|
D|-4---------------4----5----4---------|-2-----------------------|------4-----4----4----5----4---------|
A|------5-----5-------------------5----|-------------------------|--------------------------------5----|
E|-------------------------------------|-------------------------|-------------------------------------|

E|-------------------------|-------------------------------------|-------------------------|
B|-------------------------|-------------------------------------|-------------------------|
G|-------------------------|-------------------------------------|--------4----4-----2-----|
D|--------5----5-----4-----|-4---------------4----5----4---------|-2-----------------------|
A|-3-----------------------|------5-----5-------------------5----|-------------------------|
E|-------------------------|-------------------------------------|-------------------------|

E|-------------------------------------|-------------------------|---------|-----------------------------------------|
B|-------------------------------------|-------------------------|---------|-----------------------------------------|
G|-2-----------------------------------|-------------------------|-%-------|----------------7------------------------|
D|------4-----4----4----5----4---------|--------5----5-----4-----|-%-------|-5----5----5---------5----5----7----7----|
A|--------------------------------5----|-3-----------------------|---------|-3----3----3-------------------5----5----|
E|-------------------------------------|-------------------------|---------|-----------------------------------------|

E|-----------------------------------------|-------------------------------------|---------|
B|-----------------------------------------|-------------------------------------|---------|
G|------9------------------------11---%----|----------------7--------------7-----|-7-------|
D|-7----7----7----7----9----9----9----%----|-5----5----5----5----5----5----7-----|-7-------|
A|-5-------------------7----7--------------|-3----3----3-------------------5-----|-5-------|
E|-----------------------------------------|-------------------------------------|---------|

E|-----------------------------------------|-----------------------------------------|
B|-----------------------------------------|-----------------------------------------|
G|----------------7------------------------|------9------------------------11---%----|
D|-5----5----5---------5----5----7----7----|-7----7----7----7----9----9----9----%----|
A|-3----3----3-------------------5----5----|-5-------------------7----7--------------|
E|-----------------------------------------|-----------------------------------------|

E|-------------------------------------|---------|-----------------------------------------|
B|-------------------------------------|---------|-----------------------------------------|
G|-------------------------------9-----|-9-------|----------------7------------------------|
D|-5----5----5----7----7----7----9-----|-9-------|-5----5----5---------5----5----7----7----|
A|-3----3----3----5----5----5----7-----|-7-------|-3----3----3-------------------5----5----|
E|-------------------------------------|---------|-----------------------------------------|

E|-----------------------------------------|-------------------------------------|---------|
B|-----------------------------------------|-------------------------------------|---------|
G|------9------------------------11---%----|----------------7--------------7-----|-7-------|
D|-7----7----7----7----9----9----9----%----|-5----5----5----5----5----5----7-----|-7-------|
A|-5-------------------7----7--------------|-3----3----3-------------------5-----|-5-------|
E|-----------------------------------------|-------------------------------------|---------|

E|-----------------------------------------|-----------------------------------------|
B|-----------------------------------------|-----------------------------------------|
G|----------------7------------------------|------9------------------------11---%----|
D|-5----5----5---------5----5----7----7----|-7----7----7----7----9----9----9----%----|
A|-3----3----3-------------------5----5----|-5-------------------7----7--------------|
E|-----------------------------------------|-----------------------------------------|

E|-------------------------------------|---------|---------|---------|----------------8---10--8---7----------|
B|-------------------------------------|---------|---------|---------|---------------------------------------|
G|-------------------------------------|---------|---------|---------|-%-----%----%--------------------%-----|
D|-5----5----5----7----7----7----9-----|-9-------|-9-------|-9-------|-%-----%----%--------------------%-----|
A|-3----3----3----5----5----5----7-----|-7-------|-7-------|-7-------|---------------------------------------|
E|-------------------------------0-----|-0-------|-0-------|-0-------|---------------------------------------|

E|---------|---------|---------|---------|---------|---------|---------|-----------------------------------------|
B|---------|---------|---------|---------|---------|---------|---------|-----------------------------------------|
G|-%-------|-%-------|-%-------|-%-------|-%-------|-%-------|-%-------|-%---------9----11---12---11---9----9----|
D|-%-------|-%-------|-%-------|-%-------|-%-------|-%-------|-%-------|-%----9----------------------------------|
A|---------|---------|---------|---------|---------|---------|---------|-----------------------------------------|
E|---------|---------|---------|---------|---------|---------|---------|-----------------------------------------|

E|-----------------------------------------|-----------------------------------------|
B|-----------------------------------------|-----------------------------------------|
G|-9---------9----11---12---11---9----7----|-5---------5----7----9----7----5----9----|
D|------9----------------------------------|------5----------------------------------|
A|-----------------------------------------|-----------------------------------------|
E|-----------------------------------------|-----------------------------------------|

E|-----------------------------------------|-----------------------------------------|
B|-----------------------------------------|-----------------------------------------|
G|-7---------7----9----11---9----7----9----|-9---------9----11---12---11---9----9----|
D|------7----------------------------------|------9----------------------------------|
A|-----------------------------------------|-----------------------------------------|
E|-----------------------------------------|-----------------------------------------|

E|-----------------------------------------|-----------------------------------------|
B|-----------------------------------------|-----------------------------------------|
G|-9---------9----11---12---11---9----7----|-5---------5----7----9----7----5----9----|
D|------9----------------------------------|------5----------------------------------|
A|-----------------------------------------|-----------------------------------------|
E|-----------------------------------------|-----------------------------------------|

E|-----------------------------------------|-----------------------------------------|
B|-----------------------------------------|-----------------------------------------|
G|-7---------7----9----11---9----7----9----|-9---------9----11---12---11---9----9----|
D|------7----------------------------------|------9----------------------------------|
A|-----------------------------------------|-----------------------------------------|
E|-----------------------------------------|-----------------------------------------|

E|-----------------------------------------|-----------------------------------------|
B|-----------------------------------------|-----------------------------------------|
G|-9---------9----11---12---11---9----7----|-5---------5----7----9----7----5----9----|
D|------9----------------------------------|------5----------------------------------|
A|-----------------------------------------|-----------------------------------------|
E|-----------------------------------------|-----------------------------------------|

E|-----------------------------------------|-----------------------------------------|
B|-----------------------------------------|-----------------------------------------|
G|-7---------7----9----11---9----7----9----|-9---------9----11---12---11---9----9----|
D|------7----------------------------------|------9----------------------------------|
A|-----------------------------------------|-----------------------------------------|
E|-----------------------------------------|-----------------------------------------|

E|-----------------------------------------|-----------------------------------------|
B|-----------------------------------------|-----------------------------------------|
G|-9---------9----11---12---11---9----7----|-5---------5----7----9----7----5----9----|
D|------9----------------------------------|------5----------------------------------|
A|-----------------------------------------|-----------------------------------------|
E|-----------------------------------------|-----------------------------------------|

E|-----------------------------------------|---------|---------|---------|---------|
B|-----------------------------------------|---------|---------|---------|---------|
G|-7---------7----9----11---9----7----9----|-9-------|-9-------|-%-------|-%-------|
D|------7----------------------------------|---------|---------|-%-------|-%-------|
A|-----------------------------------------|---------|---------|---------|---------|
E|-----------------------------------------|---------|---------|---------|---------|

E|---------|---------|---------|---------|---------|---------|---------|---------|---------|
B|---------|---------|---------|---------|---------|---------|---------|---------|---------|
G|-%-------|-%-------|-%-------|-%-------|-%-------|-%-------|-%-------|-%-------|-%-------|
D|-%-------|-%-------|-%-------|-%-------|-%-------|-%-------|-%-------|-%-------|-%-------|
A|---------|---------|---------|---------|---------|---------|---------|---------|---------|
E|---------|---------|---------|---------|---------|---------|---------|---------|---------|

E|---------|---------|------------------------|---------|----------------------------|
B|---------|---------|------------------------|---------|----------------------------|
G|-%-------|-%-------|-%------%-----%----19---|-19------|-19-----19---19---19---17---|
D|-%-------|-%-------|-%------%-----%---------|---------|----------------------------|
A|---------|---------|------------------------|---------|----------------------------|
E|---------|---------|------------------------|---------|----------------------------|

E|-------------------|---------------------------12--17--|-17--12-----------------------------------------------------|
B|-------------------|-----------------------------------|----------12--13---12--13--12--12--13--12--------------12---|
G|-17------17--------|-----16---17-----------------------|-------------------------------------------14--12--10-------|
D|--------------19---|-19------------19-----19-----------|------------------------------------------------------------|
A|-------------------|-----------------------------------|------------------------------------------------------------|
E|-------------------|-----------------------------------|------------------------------------------------------------|

E|----------------------------------------------------|-----------------------------------------------------------|
B|-12----12--10--12--10--13--12--13--12--13---12------|-----------------------------------------------------------|
G|------------------------------------------------14--|-12--10--12---10-12--10--9---------------------------------|
D|----------------------------------------------------|-----------------------------12--12--10--12--10--8----14---|
A|----------------------------------------------------|-----------------------------------------------------------|
E|----------------------------------------------------|-----------------------------------------------------------|

E|-------------------------------------|-----------------------------|-17---19---20----20-----20---|
B|------13---13----13---12-------------|-13---15---17----17-----20---|-----------------------------|
G|-12------------------------14---12---|-----------------------------|-----------------------------|
D|-------------------------------------|-----------------------------|-----------------------------|
A|-------------------------------------|-----------------------------|-----------------------------|
E|-------------------------------------|-----------------------------|-----------------------------|

E|-20-----20--20--19--17-------20--19--|-17--20--19--17--20--19--17------17---20--17--17--17-------|
B|------------------------20-----------|-----------------------------20-----------------------20---|
G|-------------------------------------|-----------------------------------------------------------|
D|-------------------------------------|-----------------------------------------------------------|
A|-------------------------------------|-----------------------------------------------------------|
E|-------------------------------------|-----------------------------------------------------------|

E|-----------------------------19--19----|-19---19---17--------17--------------|--------------------------------------------|
B|-20-----20---18--20--18--17------------|----------------20--------20---20----|-20---18---17--------17---------------------|
G|---------------------------------------|-------------------------------------|----------------19--------17--------16--17--|
D|---------------------------------------|-------------------------------------|-------------------------------19-----------|
A|---------------------------------------|-------------------------------------|--------------------------------------------|
E|---------------------------------------|-------------------------------------|--------------------------------------------|

E|---------------------------------|-----------------------------------------|-----------------------------------------|
B|---------------------------------|-----------------------------------------|-----------------------------------------|
G|-16------------------------------|-%---------9----11---12---11---9----9----|-9---------9----11---12---11---9----7----|
D|------19---17---19---19----19----|-%----9----------------------------------|------9----------------------------------|
A|---------------------------------|-----------------------------------------|-----------------------------------------|
E|---------------------------------|-----------------------------------------|-----------------------------------------|

E|-----------------------------------------|-----------------------------------------|
B|-----------------------------------------|-----------------------------------------|
G|-5---------5----7----9----7----5----9----|-7---------7----9----11---9----7----9----|
D|------5----------------------------------|------7----------------------------------|
A|-----------------------------------------|-----------------------------------------|
E|-----------------------------------------|-----------------------------------------|

E|-----------------------------------------|-----------------------------------------|
B|-----------------------------------------|-----------------------------------------|
G|-9---------9----11---12---11---9----9----|-9---------9----11---12---11---9----7----|
D|------9----------------------------------|------9----------------------------------|
A|-----------------------------------------|-----------------------------------------|
E|-----------------------------------------|-----------------------------------------|

E|-----------------------------------------|-----------------------------------------|
B|-----------------------------------------|-----------------------------------------|
G|-5---------5----7----9----7----5----9----|-7---------7----9----11---9----7----9----|
D|------5----------------------------------|------7----------------------------------|
A|-----------------------------------------|-----------------------------------------|
E|-----------------------------------------|-----------------------------------------|

E|-----------------------------------------|-----------------------------------------|
B|-----------------------------------------|-----------------------------------------|
G|-9---------9----11---12---11---9----9----|-9---------9----11---12---11---9----7----|
D|------9----------------------------------|------9----------------------------------|
A|-----------------------------------------|-----------------------------------------|
E|-----------------------------------------|-----------------------------------------|

E|-----------------------------------------|-----------------------------------------|
B|-----------------------------------------|-----------------------------------------|
G|-5---------5----7----9----7----5----9----|-7---------7----9----11---9----7----9----|
D|------5----------------------------------|------7----------------------------------|
A|-----------------------------------------|-----------------------------------------|
E|-----------------------------------------|-----------------------------------------|

E|-----------------------------------------|-----------------------------------------|
B|-----------------------------------------|-----------------------------------------|
G|-9---------9----11---12---11---9----9----|-9---------9----11---12---11---9----7----|
D|------9----------------------------------|------9----------------------------------|
A|-----------------------------------------|-----------------------------------------|
E|-----------------------------------------|-----------------------------------------|

E|-----------------------------------------|-------------------------------------|-----------------------------------------|
B|-----------------------------------------|-------------------------------------|-----------------------------------------|
G|-5---------5----7----9----7----5----9----|-7---------7----9----11---9----7-----|----------------7------------------------|
D|------5----------------------------------|------7------------------------------|-5----5----5----5----5----5----7----7----|
A|-----------------------------------------|-------------------------------------|-3----3----3-------------------5----5----|
E|-----------------------------------------|-------------------------------------|-----------------------------------------|

E|-----------------------------------------|-------------------------------------|---------|
B|-----------------------------------------|-------------------------------------|---------|
G|------9------------------------11---%----|----------------7--------------7-----|-7-------|
D|-7----7----7----7----9----9----9----%----|-5----5----5----5----5----5----7-----|-7-------|
A|-5-------------------7----7--------------|-3----3----3-------------------5-----|-5-------|
E|-----------------------------------------|-------------------------------------|---------|

E|-----------------------------------------|-----------------------------------------|
B|-----------------------------------------|-----------------------------------------|
G|----------------7------------------------|------9------------------------11---%----|
D|-5----5----5----5----5----5----7----7----|-7----7----7----7----9----9----9----%----|
A|-3----3----3-------------------5----5----|-5-------------------7----7--------------|
E|-----------------------------------------|-----------------------------------------|

E|-------------------------------------|---------|-----------------------------------------|
B|-------------------------------------|---------|-----------------------------------------|
G|-------------------------------9-----|-9-------|----------------7------------------------|
D|-5----5----5----7----7----7----9-----|-9-------|-5----5----5----5----5----5----7----7----|
A|-3----3----3----5----5----5----7-----|-7-------|-3----3----3-------------------5----5----|
E|-------------------------------------|---------|-----------------------------------------|

E|-----------------------------------------|-------------------------------------|---------|
B|-----------------------------------------|-------------------------------------|---------|
G|------9------------------------11---%----|----------------7--------------7-----|-7-------|
D|-7----7----7----7----9----9----9----%----|-5----5----5----5----5----5----7-----|-7-------|
A|-5-------------------7----7--------------|-3----3----3-------------------5-----|-5-------|
E|-----------------------------------------|-------------------------------------|---------|

E|-----------------------------------------|-----------------------------------------|
B|-----------------------------------------|-----------------------------------------|
G|----------------7------------------------|------9------------------------11---%----|
D|-5----5----5----5----5----5----7----7----|-7----7----7----7----9----9----9----%----|
A|-3----3----3-------------------5----5----|-5-------------------7----7--------------|
E|-----------------------------------------|-----------------------------------------|

E|-----------------------------------------|-----------------------------------------|
B|-----------------------------------------|-----------------------------------------|
G|-----------------------------------------|-----------------------------------------|
D|-5----5----5----7----7----7----9----9----|-9----9--------------9--------------9----|
A|-3----3----3----5----5----5----7----7----|-7----7----7----7----7----7----7----7----|
E|-----------------------------------------|-----------------------------------------|

E|---------------------------------|--------------------------------------------------------------|
B|---------------------------------|--------------------------------------------------------------|
G|---------------------9-----9-----|--------------9-----------7---7-------9-------7-------7---9---|
D|-----------9---------9-----9-----|------7---9-------9---7-----------7-------7-------7-----------|
A|-7----7----7----7----7-----7-----|-7------------------------------------------------------------|
E|---------------------------------|--------------------------------------------------------------|

E|-------------------------------------------------------|-----------------------------------------------------------------|
B|-------------------------------------------------------|-----------------------------------------------------------------|
G|-----------------9-----------7---7-------9---7---------|-----------------9-----------7---7-------9-------7-------7---9---|
D|---------7---9-------9---7-----------7-----------9-----|---------7---9-------9---7-----------7-------7-------7-----------|
A|-7---7-------------------------------------------------|-7---7-----------------------------------------------------------|
E|-------------------------------------------------------|-----------------------------------------------------------------|

E|----------------------------------------------------------|---------------------------------|
B|-----------------------------------------8--10--8---------|---------------------------------|
G|-----------------9-----------7---7------------------9-----|-9----9----%-----12---11---%-----|
D|---------7---9-------9---7-----------9--------------------|-X----X----%-----X----X----%-----|
A|-7---7----------------------------------------------------|-7----7----------10---9----------|
E|----------------------------------------------------------|---------------------------------|

E|-----------------------------------------|---------------------------------|------------------------------------------|
B|-----------------------------------------|---------------------------------|------------------------------------------|
G|-7----9----%----5----7----4----5---------|-9----9----%-----12---11---%-----|-7----9----%-----5----7----4----5----4----|
D|-X----X----%----X----X----X----X----X----|-X----X----%-----X----X----%-----|-X----X----%-----X----X----X----X----X----|
A|-5----7---------3----5----2----3---------|-7----7----------10---9----------|-5----7----------3----5----2----3----2----|
E|-----------------------------------------|---------------------------------|------------------------------------------|

E|---------------------------------|-------------------------------------|---------------------------------|
B|---------------------------------|-------------------------------------|---------------------------------|
G|-9----9----%-----12---11---%-----|-7----9----%-----5----7----4----5----|-9----9----%-----12---11---%-----|
D|-X----X----%-----X----X----%-----|-X----X----%-----X----X----X----X----|-X----X----%-----X----X----%-----|
A|-7----7----------10---9----------|-5----7----------3----5----2----3----|-7----7----------10---9----------|
E|---------------------------------|-------------------------------------|---------------------------------|

E|-----------------------------------------|-0-------|-0-------|-0-------|-0-------|
B|-----------------------------------------|-0-------|-0-------|-0-------|-0-------|
G|-7----9----4----5----7----4----5----4----|-2-------|-2-------|-2-------|-4-------|
D|-X----X----X----X----X----X----X----X----|-2-------|-3-------|-4-------|-5-------|
A|-5----7----2----3----5----2----3----2----|---------|---------|---------|---------|
E|-----------------------------------------|---------|---------|---------|---------|

E|-0-------|-0-------|-0-------|-0-------|-----------------------------------------------------------------|
B|-3-------|-3-------|-3-------|-5-------|-----------------------------------------------------------------|
G|-2-------|-3-------|-4-------|-5-------|-------------------------%---------------------------------------|
D|-0-------|-0-------|-0-------|-0-------|-----2---5---4---0---2---%---5---5---4---0---2---5---4---0---2---|
A|---------|---------|---------|---------|-----------------------------------------------------------------|
E|---------|---------|---------|---------|-0---------------------------------------------------------------|

E|--------------------------------------------------------------|-----------------------------------------------------------------|
B|--------------------------------------------------------------|-----------------------------------------------------------------|
G|-------------------------%-----------------------2------------|-------------------------%---------------------------------------|
D|-----2---5---4---2---4---%---5---5---4---0---2-------5---4----|-----2---5---4---0---2---%---5---5---4---0---2---5---4---0---2---|
A|--------------------------------------------------------------|-----------------------------------------------------------------|
E|-0------------------------------------------------------------|-0---------------------------------------------------------------|

E|--------------------------------------------------------------|-------------------------|
B|--------------------------------------------------------------|-------------------------|
G|-------------------------%-----------------------2------------|--------4----4-----2-----|
D|-----2---5---4---2---4---%---5---5---4---0---2-------5---4----|-2-----------------------|
A|--------------------------------------------------------------|-------------------------|
E|-0------------------------------------------------------------|-------------------------|

E|-------------------------------------|-------------------------|-------------------------------------|
B|-------------------------------------|-------------------------|-------------------------------------|
G|-2-----------------------------------|-------------------------|-------------------------------------|
D|------4-----4----4----5----4---------|--------5----5-----4-----|-4---------------4----5----4---------|
A|--------------------------------5----|-3-----------------------|------5-----5-------------------5----|
E|-------------------------------------|-------------------------|-------------------------------------|

E|-------------------------|-------------------------------------|-------------------------|
B|-------------------------|-------------------------------------|-------------------------|
G|--------4----4-----2-----|-2-----------------------------------|-------------------------|
D|-2-----------------------|------4-----4----4----5----4---------|--------5----5-----4-----|
A|-------------------------|--------------------------------5----|-3-----------------------|
E|-------------------------|-------------------------------------|-------------------------|

E|-------------------------------------|-------------------------|-------------------------------------|
B|-------------------------------------|-------------------------|-------------------------------------|
G|-------------------------------------|--------4----4-----2-----|-2-----------------------------------|
D|-4---------------4----5----4---------|-2-----------------------|------4-----4----4----5----4---------|
A|------5-----5-------------------5----|-------------------------|--------------------------------5----|
E|-------------------------------------|-------------------------|-------------------------------------|

E|-------------------------|-------------------------------------|-------------------------|
B|-------------------------|-------------------------------------|-------------------------|
G|-------------------------|-------------------------------------|--------4----4-----2-----|
D|--------5----5-----4-----|-4---------------4----5----4---------|-2-----------------------|
A|-3-----------------------|------5-----5-------------------5----|-------------------------|
E|-------------------------|-------------------------------------|-------------------------|

E|-------------------------------------|-------------------------|---------|-------------------------|
B|-------------------------------------|-------------------------|---------|-------------------------|
G|-2-----------------------------------|-------------------------|-%-------|--------4----4-----2-----|
D|------4-----4----4----5----4---------|--------5----5-----4-----|-%-------|-2-----------------------|
A|--------------------------------5----|-3-----------------------|---------|-------------------------|
E|-------------------------------------|-------------------------|---------|-------------------------|

E|-------------------------------------|-------------------------|-------------------------------------|
B|-------------------------------------|-------------------------|-------------------------------------|
G|-2-----------------------------------|-------------------------|-------------------------------------|
D|------4-----4----4----5----4---------|--------5----5-----4-----|-4---------------4----5----4---------|
A|--------------------------------5----|-3-----------------------|------5-----5-------------------5----|
E|-------------------------------------|-------------------------|-------------------------------------|

E|-------------------------|-------------------------------------|-------------------------|
B|-------------------------|-------------------------------------|-------------------------|
G|--------4----4-----2-----|-2-----------------------------------|-------------------------|
D|-2-----------------------|------4-----4----4----5----4---------|--------5----5-----4-----|
A|-------------------------|--------------------------------5----|-3-----------------------|
E|-------------------------|-------------------------------------|-------------------------|

E|-------------------------------------|-------------------------|-------------------------------------|
B|-------------------------------------|-------------------------|-------------------------------------|
G|-------------------------------------|--------4----4-----2-----|-2-----------------------------------|
D|-4---------------4----5----4---------|-2-----------------------|------4-----4----4----5----4---------|
A|------5-----5-------------------5----|-------------------------|--------------------------------5----|
E|-------------------------------------|-------------------------|-------------------------------------|

E|-------------------------|-------------------------------------|-------------------------|
B|-------------------------|-------------------------------------|-------------------------|
G|-------------------------|-------------------------------------|--------4----4-----2-----|
D|--------5----5-----4-----|-4---------------4----5----4---------|-2-----------------------|
A|-3-----------------------|------5-----5-------------------5----|-------------------------|
E|-------------------------|-------------------------------------|-------------------------|

E|-------------------------------------|-------------------------|-------------------------------------|
B|-------------------------------------|-------------------------|-------------------------------------|
G|-2-----------------------------------|-------------------------|-------------------------------------|
D|------4-----4----4----5----4---------|--------5----5-----4-----|-4---------------4----5----4---------|
A|--------------------------------5----|-3-----------------------|------5-----5-------------------5----|
E|-------------------------------------|-------------------------|-------------------------------------|

E|--------------------------------------------------------------|-------------------------------------------------------|
B|--------------------------------------------------------------|-------------------------------------------------------|
G|--------------9-----------7---7-------9-------7-------7---9---|-----------------9-----------7---7-------9---7---------|
D|------7---9-------9---7-----------7-------7-------7-----------|---------7---9-------9---7-----------7-----------9-----|
A|-7------------------------------------------------------------|-7---7-------------------------------------------------|
E|--------------------------------------------------------------|-------------------------------------------------------|

E|-----------------------------------------------------------------|----------------------------------------------------------|
B|-----------------------------------------------------------------|-----------------------------------------8--10--8---------|
G|-----------------9-----------7---7-------9-------7-------7---9---|-----------------9-----------7---7------------------9-----|
D|---------7---9-------9---7-----------7-------7-------7-----------|---------7---9-------9---7-----------9--------------------|
A|-7---7-----------------------------------------------------------|-7---7----------------------------------------------------|
E|-----------------------------------------------------------------|----------------------------------------------------------|

E|----------------------------------------------------------------|--------------------------------------------------|
B|----------------------------------------------------------------|--------------------------------------------------|
G|-----------------------7---7---7---7---5---5----5---5---5---5---|-5------------------------------------------------|
D|-----7--7--7---7---7--------------------------------------------|-----5--5--5---5---5------------------------------|
A|-7--------------------------------------------------------------|-----------------------5---5---5---5--------------|
E|----------------------------------------------------------------|---------------------------------------5---5------|
Iron Maiden - The Unbeliever
Iron Maiden - The Unbeliever.gp3