Iron Maiden - To Tame A Land

Iron Maiden



Title: To Tame A Land
Album: Piece Of Mind
Artist: Iron Maiden
Author: 

Track 1: Adrian (guitar)
E|----------------------|----------------------|-----------5----7----5-------------------|
B|-7-------8---7---5----|-7-------8---7---5----|-7----8-------------------8----7----8----|
G|----------------------|----------------------|-----------------------------------------|
D|----------------------|----------------------|-----------------------------------------|
A|----------------------|----------------------|-----------------------------------------|
E|----------------------|----------------------|-----------------------------------------|

E|---------------------------------|----------------------|----------------------|-----------2----3----2----0---------0----|
B|-7----8----7----8----7-----5-----|-3-------5---3--------|-3-------5---3--------|-3----5------------------------3---------|
G|---------------------------------|-----------------6----|-----------------6----|-----------------------------------------|
D|---------------------------------|----------------------|----------------------|-----------------------------------------|
A|---------------------------------|----------------------|----------------------|-----------------------------------------|
E|---------------------------------|----------------------|----------------------|-----------------------------------------|

E|-2----3----2----0----------------|----------------------|----------------------|-----------5----7----5-------------------|
B|---------------------3-----5-----|-7-------8---7---5----|-7-------8---7---5----|-7----8-------------------8----7----8----|
G|---------------------------------|----------------------|----------------------|-----------------------------------------|
D|---------------------------------|----------------------|----------------------|-----------------------------------------|
A|---------------------------------|----------------------|----------------------|-----------------------------------------|
E|---------------------------------|----------------------|----------------------|-----------------------------------------|

E|---------------------------------|----------------------|----------------------|-----------3----4----3-------------------|
B|-7----8----7----8----7-----5-----|-4-------6---4--------|-4-------6---4--------|-4----6-------------------6----4----6----|
G|---------------------------------|-----------------7----|-----------------7----|-----------------------------------------|
D|---------------------------------|----------------------|----------------------|-----------------------------------------|
A|---------------------------------|----------------------|----------------------|-----------------------------------------|
E|---------------------------------|----------------------|----------------------|-----------------------------------------|

E|-3----4----3---------------------|----------------------|----------------------|-----------5----7----5-------------------|
B|----------------6----4-----5-----|-7-------8---7---5----|-7-------8---7---5----|-7----8-------------------8----7----8----|
G|---------------------------------|----------------------|----------------------|-----------------------------------------|
D|---------------------------------|----------------------|----------------------|-----------------------------------------|
A|---------------------------------|----------------------|----------------------|-----------------------------------------|
E|---------------------------------|----------------------|----------------------|-----------------------------------------|

E|---------------------------------|----------------------|----------------------|-----------2----3----2----0---------0----|
B|-7----8----7----8----7-----5-----|-3-------5---3--------|-3-------5---3--------|-3----5------------------------3---------|
G|---------------------------------|-----------------6----|-----------------6----|-----------------------------------------|
D|---------------------------------|----------------------|----------------------|-----------------------------------------|
A|---------------------------------|----------------------|----------------------|-----------------------------------------|
E|---------------------------------|----------------------|----------------------|-----------------------------------------|

E|-2----3----2----0----------------|----------------------|----------------------|-----------5----7----5-------------------|
B|---------------------3-----5-----|-7-------8---7---5----|-7-------8---7---5----|-7----8-------------------8----7----8----|
G|---------------------------------|----------------------|----------------------|-----------------------------------------|
D|---------------------------------|----------------------|----------------------|-----------------------------------------|
A|---------------------------------|----------------------|----------------------|-----------------------------------------|
E|---------------------------------|----------------------|----------------------|-----------------------------------------|

E|---------------------------------|----------------------|----------------------|-----------3----4----3-------------------|
B|-7----8----7----8----7-----5-----|-4-------6---4--------|-4-------6---4--------|-4----6-------------------6----4----6----|
G|---------------------------------|-----------------7----|-----------------7----|-----------------------------------------|
D|---------------------------------|----------------------|----------------------|-----------------------------------------|
A|---------------------------------|----------------------|----------------------|-----------------------------------------|
E|---------------------------------|----------------------|----------------------|-----------------------------------------|

E|-3----4----3---------------------|-----------------------------------------------------------------|
B|----------------6----4-----5-----|-----------------------------------------------------------------|
G|---------------------------------|-----------------------------------------------------------------|
D|---------------------------------|-----2---2---2---2---2---2---2-------2---2---2---2---2---2---2---|
A|---------------------------------|-2---2---2---2---3---2---0---2---2---2---2---2---3---2---0---2---|
E|---------------------------------|-0-------------------------------0-------------------------------|

E|-----------------------------------------------------------------|-----------------------------------------------------------------|
B|-----------------------------------------------------------------|-----------------------------------------------------------------|
G|-----------------------------------------------------------------|-----------------------------------------------------------------|
D|-----------------------------------------------------------------|-----2---2---2---2---2---2---2-------2---2---2---2---2---2---2---|
A|-5---5---5---5---5---5---5---5---2---2---2---2---2---2---2---2---|-2---2---2---2---3---2---0---2---2---2---2---2---3---2---0---2---|
E|-3---3---3---3---3---3---3---3---0---0---0---0---0---0---0---0---|-0-------------------------------0-------------------------------|

E|-----------------------------------------------------------------|-----------------------------------------------------------|
B|-----------------------------------------------------------------|-----------------------------------------------------------|
G|-----------------------------------------------------------------|-----------------------------------------------------------|
D|-----------------------------------------------------------------|-----------------2----------------------------2------------|
A|-6---6---6---6---6---6---6---6---3---3---3---3---3---3---3---3---|-----------------2----------------------------2------------|
E|-4---4---4---4---4---4---4---4---1---1---1---1---1---1---1---1---|-0---0---0---0---0----0---0---0---0---0---0---0----0---0---|

E|-----------------------------------------------------------|-----------------------------------------------------------|
B|-----------------------------------------------------------|-----------------------------------------------------------|
G|-5---5---5---5---5----5---5---2---2---2---2---2----2---2---|-----------------------------------------------------------|
D|-5---5---5---5---5----5---5---2---2---2---2---2----2---2---|-----------------2----------------------------2------------|
A|-3---3---3---3---3----3---3---0---0---0---0---0----0---0---|-----------------2----------------------------2------------|
E|-----------------------------------------------------------|-0---0---0---0---0----0---0---0---0---0---0---0----0---0---|

E|-----------------------------------------------------------|-----------------------------------------------------------------|
B|-----------------------------------------------------------|-----------------------------------------------------------------|
G|-7---7---7---7---7----7---7---4---4---4---4---4----4---4---|-----------------------------------------------------------------|
D|-7---7---7---7---7----7---7---4---4---4---4---4----4---4---|-----2---2---2---2---2---2---2-------2---2---2---2---2---2---2---|
A|-5---5---5---5---5----5---5---2---2---2---2---2----2---2---|-2---2---2---2---3---2---0---2---2---2---2---2---3---2---0---2---|
E|-----------------------------------------------------------|-0-------------------------------0-------------------------------|

E|-----------------------------------------------------------------|-----------------------------------------------------------------|
B|-----------------------------------------------------------------|-----------------------------------------------------------------|
G|-----------------------------------------------------------------|-----------------------------------------------------------------|
D|-----------------------------------------------------------------|-----2---2---2---2---2---2---2-------2---2---2---2---2---2---2---|
A|-5---5---5---5---5---5---5---5---2---2---2---2---2---2---2---2---|-2---2---2---2---3---2---0---2---2---2---2---2---3---2---0---2---|
E|-3---3---3---3---3---3---3---3---0---0---0---0---0---0---0---0---|-0-------------------------------0-------------------------------|

E|-----------------------------------------------------------------|-----------------------------------------------------------|
B|-----------------------------------------------------------------|-----------------------------------------------------------|
G|-----------------------------------------------------------------|-----------------9----------------------------9------------|
D|-----------------------------------------------------------------|-----------------9----------------------------9------------|
A|-6---6---6---6---6---6---6---6---3---3---3---3---3---3---3---3---|-7---7---7---7---7----7---7---7---7---7---7---7----7---7---|
E|-4---4---4---4---4---4---4---4---1---1---1---1---1---1---1---1---|-----------------------------------------------------------|

E|-----------------------------------------------------------|-----------------------------------------------------------|
B|-----------------------------------------------------------|-----------------------------------------------------------|
G|-5---5---5---5---5----5---5---2---2---2---2---2----2---2---|-----------------9----------------------------9------------|
D|-5---5---5---5---5----5---5---2---2---2---2---2----2---2---|-----------------9----------------------------9------------|
A|-3---3---3---3---3----3---3---0---0---0---0---0----0---0---|-7---7---7---7---7----7---7---7---7---7---7---7----7---7---|
E|-----------------------------------------------------------|-----------------------------------------------------------|

E|-----------------------------------------------------------|-----------------------------------------------------------|
B|-----------------------------------------------------------|-----------------------------------------------------------|
G|-7---7---7---7---7----7---7---4---4---4---4---4----4---4---|-----------------9----------------------------9------------|
D|-7---7---7---7---7----7---7---4---4---4---4---4----4---4---|-----------------9----------------------------9------------|
A|-5---5---5---5---5----5---5---2---2---2---2---2----2---2---|-7---7---7---7---7----7---7---7---7---7---7---7----7---7---|
E|-----------------------------------------------------------|-----------------------------------------------------------|

E|-----------------------------------------------------------|-----------------------------------------------------------|
B|-----------------------------------------------------------|-----------------------------------------------------------|
G|-----------------5----------------------------2------------|-----------------9----------------------------9------------|
D|-----------------5----------------------------2------------|-----------------9----------------------------9------------|
A|-3---3---3---3---3----3---3---0---0---0---0---0----0---0---|-7---7---7---7---7----7---7---7---7---7---7---7----7---7---|
E|-----------------------------------------------------------|-----------------------------------------------------------|

E|-----------------------------------------------------------|-----------------------------------------------------------|
B|-----------------------------------------------------------|-----------------------------------------------------------|
G|-----------------7----------------------------4------------|-----------------7----------------------------7------------|
D|-----------------7----------------------------4------------|-----------------7----------------------------7------------|
A|-5---5---5---5---5----5---5---2---2---2---2---2----2---2---|-5---5---5---5---5----5---5---5---5---5---5---5----5---5---|
E|-----------------------------------------------------------|-----------------------------------------------------------|

E|-----------------------------------------------------------|-----------------------------------------------------------|
B|-----------------------------------------------------------|-----------------------------------------------------------|
G|-----------------3-----------------------------------------|-----------------7----------------------------7------------|
D|-----------------3----------------------------5------------|-----------------7----------------------------7------------|
A|-1---1---1---1---1----1---1-------------------5------------|-5---5---5---5---5----5---5---5---5---5---5---5----5---5---|
E|------------------------------3---3---3---3---3----3---3---|-----------------------------------------------------------|

E|-----------------------------------------------------------|---------|---------|---------|
B|-----------------------------------------------------------|---------|---------|---------|
G|-----------------3-----------------------------------------|-7-------|-7-------|-7-------|
D|-----------------3----------------------------5------------|-7-------|-7-------|-7-------|
A|-1---1---1---1---1----1---1-------------------5------------|-5-------|-5-------|-5-------|
E|------------------------------3---3---3---3---3----3---3---|---------|---------|---------|

E|---------|---------|---------|---------|---------|---------|---------|---------|---------|
B|---------|---------|---------|---------|---------|---------|---------|---------|---------|
G|-7-------|---------|---------|---------|---------|-7-------|-7-------|-7-------|-7-------|
D|-7-------|-7-------|-7-------|-7-------|-7-------|-7-------|-7-------|-7-------|-7-------|
A|-5-------|-7-------|-7-------|-7-------|-7-------|-5-------|-5-------|-5-------|-5-------|
E|---------|-5-------|-5-------|-5-------|-5-------|---------|---------|---------|---------|

E|---------|---------|---------|---------|---------|---------|---------|---------|---------|
B|---------|---------|---------|---------|---------|---------|---------|---------|---------|
G|---------|---------|---------|---------|-7-------|-7-------|-7-------|-7-------|---------|
D|-7-------|-7-------|-7-------|-7-------|-7-------|-7-------|-7-------|-7-------|-7-------|
A|-7-------|-7-------|-7-------|-7-------|-5-------|-5-------|-5-------|-5-------|-7-------|
E|-5-------|-5-------|-5-------|-5-------|---------|---------|---------|---------|-5-------|

E|---------|---------|---------|------------------------------|------------------------------|
B|---------|---------|---------|------------------------------|------------------------------|
G|---------|---------|---------|-7----------------%-----------|-7----------------%-----------|
D|-7-------|-7-------|-7-------|-7------8-----5---%---5---5---|-7------8-----5---%---5---5---|
A|-7-------|-7-------|-7-------|-5------8-----5-------5---5---|-5------8-----5-------5---5---|
E|-5-------|-5-------|-5-------|--------6-----3-------3---3---|--------6-----3-------3---3---|

E|------------------------------|------------------------------|------------------|
B|------------------------------|------------------------------|------------------|
G|-7----------------%-----------|-7----------------%-----------|-9----%----%------|
D|-7------8-----5---%---5---5---|-7------8-----5---%---5---5---|-9----%----%------|
A|-5------8-----5-------5---5---|-5------8-----5-------5---5---|-7----------------|
E|--------6-----3-------3---3---|--------6-----3-------3---3---|------------------|

E|------------------|------------------|--------------|------------------|------------------|
B|------------------|------------------|--------------|------------------|------------------|
G|-9----%----%------|-9----%----%------|-%------%-----|-4----%----%------|-4----%----%------|
D|-9----%----%------|-9----%----%------|-%------%-----|-4----%----%------|-4----%----%------|
A|-7----------------|-7----------------|--------------|-2----------------|-2----------------|
E|------------------|------------------|--------------|------------------|------------------|

E|------------------|--------------|------------------|------------------|------------------|
B|------------------|--------------|------------------|------------------|------------------|
G|-4----%----%------|-%------%-----|-9----%----%------|-9----%----%------|-9----%----%------|
D|-4----%----%------|-%------%-----|-9----%----%------|-9----%----%------|-9----%----%------|
A|-2----------------|--------------|-7----------------|-7----------------|-7----------------|
E|------------------|--------------|------------------|------------------|------------------|

E|--------------|------------------|------------------|------------------|--------------|
B|--------------|------------------|------------------|------------------|--------------|
G|-%------%-----|-4----%----%------|-4----%----%------|-4----%----%------|-%------%-----|
D|-%------%-----|-4----%----%------|-4----%----%------|-4----%----%------|-%------%-----|
A|--------------|-2----------------|-2----------------|-2----------------|--------------|
E|--------------|------------------|------------------|------------------|--------------|

E|---------------------------------|---------------------------------|---------------------------------|
B|---------------------------------|---------------------------------|---------------------------------|
G|-9----9----9-----9----9----9-----|-9----9----9-----9----9----9-----|-9----9----9-----9----9----9-----|
D|-9----9----9-----9----9----9-----|-9----9----9-----9----9----9-----|-9----9----9-----9----9----9-----|
A|-7----7----7-----7----7----7-----|-7----7----7-----7----7----7-----|-7----7----7-----7----7----7-----|
E|---------------------------------|---------------------------------|---------------------------------|

E|---------------------------------|---------------------------------|---------------------------------|
B|---------------------------------|---------------------------------|---------------------------------|
G|-9----9----9-----9----9----9-----|-7----7----7-----7----7----7-----|-7----7----7-----7----7----7-----|
D|-9----9----9-----9----9----9-----|-7----7----7-----7----7----7-----|-7----7----7-----7----7----7-----|
A|-7----7----7-----7----7----7-----|-5----5----5-----5----5----5-----|-5----5----5-----5----5----5-----|
E|---------------------------------|---------------------------------|---------------------------------|

E|---------------------------------|---------------------------------|---------------------------------|
B|---------------------------------|---------------------------------|---------------------------------|
G|-7----7----7-----7----7----7-----|-7----7----7-----7----7----7-----|-9----9----9-----9----9----9-----|
D|-7----7----7-----7----7----7-----|-7----7----7-----7----7----7-----|-9----9----9-----9----9----9-----|
A|-5----5----5-----5----5----5-----|-5----5----5-----5----5----5-----|-7----7----7-----7----7----7-----|
E|---------------------------------|---------------------------------|---------------------------------|

E|---------------------------------|---------------------------------|---------------------------------|
B|---------------------------------|---------------------------------|---------------------------------|
G|-9----9----9-----9----9----9-----|-9----9----9-----9----9----9-----|-9----9----9-----9----9----9-----|
D|-9----9----9-----9----9----9-----|-9----9----9-----9----9----9-----|-9----9----9-----9----9----9-----|
A|-7----7----7-----7----7----7-----|-7----7----7-----7----7----7-----|-7----7----7-----7----7----7-----|
E|---------------------------------|---------------------------------|---------------------------------|

E|---------------------------------|---------------------------------|---------------------------------|
B|---------------------------------|---------------------------------|---------------------------------|
G|-7----7----7-----7----7----7-----|-7----7----7-----7----7----7-----|-7----7----7-----7----7----7-----|
D|-7----7----7-----7----7----7-----|-7----7----7-----7----7----7-----|-7----7----7-----7----7----7-----|
A|-5----5----5-----5----5----5-----|-5----5----5-----5----5----5-----|-5----5----5-----5----5----5-----|
E|---------------------------------|---------------------------------|---------------------------------|

E|---------------------------------|---------------------------------|---------------------------------|
B|---------------------------------|---------------------------------|---------------------------------|
G|-7----7----7-----7----7----7-----|-9----9----9-----9----9----9-----|-9----9----9-----9----9----9-----|
D|-7----7----7-----7----7----7-----|-9----9----9-----9----9----9-----|-9----9----9-----9----9----9-----|
A|-5----5----5-----5----5----5-----|-7----7----7-----7----7----7-----|-7----7----7-----7----7----7-----|
E|---------------------------------|---------------------------------|---------------------------------|

E|---------------------------------|---------------------------------|---------------------------------|
B|---------------------------------|---------------------------------|---------------------------------|
G|-9----9----9-----9----9----9-----|-9----9----9-----9----9----9-----|-7----7----7-----7----7----7-----|
D|-9----9----9-----9----9----9-----|-9----9----9-----9----9----9-----|-7----7----7-----7----7----7-----|
A|-7----7----7-----7----7----7-----|-7----7----7-----7----7----7-----|-5----5----5-----5----5----5-----|
E|---------------------------------|---------------------------------|---------------------------------|

E|---------------------------------|---------------------------------|---------------------------------|
B|---------------------------------|---------------------------------|---------------------------------|
G|-7----7----7-----7----7----7-----|-7----7----7-----7----7----7-----|-7----7----7-----7----7----7-----|
D|-7----7----7-----7----7----7-----|-7----7----7-----7----7----7-----|-7----7----7-----7----7----7-----|
A|-5----5----5-----5----5----5-----|-5----5----5-----5----5----5-----|-5----5----5-----5----5----5-----|
E|---------------------------------|---------------------------------|---------------------------------|

E|---------------------------------|---------------------------------|---------------------------------|
B|---------------------------------|---------------------------------|---------------------------------|
G|-9----9----9-----9----9----9-----|-9----9----9-----9----9----9-----|-9----9----9-----9----9----9-----|
D|-9----9----9-----9----9----9-----|-9----9----9-----9----9----9-----|-9----9----9-----9----9----9-----|
A|-7----7----7-----7----7----7-----|-7----7----7-----7----7----7-----|-7----7----7-----7----7----7-----|
E|---------------------------------|---------------------------------|---------------------------------|

E|---------------------------------|---------------------------------|---------------------------------|
B|---------------------------------|---------------------------------|---------------------------------|
G|-9----9----9-----9----9----9-----|-7----7----7-----7----7----7-----|-7----7----7-----7----7----7-----|
D|-9----9----9-----9----9----9-----|-7----7----7-----7----7----7-----|-7----7----7-----7----7----7-----|
A|-7----7----7-----7----7----7-----|-5----5----5-----5----5----5-----|-5----5----5-----5----5----5-----|
E|---------------------------------|---------------------------------|---------------------------------|

E|---------------------------------|---------------------------------|---------------------------------|
B|---------------------------------|---------------------------------|---------------------------------|
G|-7----7----7-----7----7----7-----|-7----7----7-----7----7----7-----|-9----9----9-----9----9----9-----|
D|-7----7----7-----7----7----7-----|-7----7----7-----7----7----7-----|-9----9----9-----9----9----9-----|
A|-5----5----5-----5----5----5-----|-5----5----5-----5----5----5-----|-7----7----7-----7----7----7-----|
E|---------------------------------|---------------------------------|---------------------------------|

E|---------------------------------|---------------------------------|---------------------------------|
B|---------------------------------|---------------------------------|---------------------------------|
G|-9----9----9-----9----9----9-----|-9----9----9-----9----9----9-----|-9----9----9-----9----9----9-----|
D|-9----9----9-----9----9----9-----|-9----9----9-----9----9----9-----|-9----9----9-----9----9----9-----|
A|-7----7----7-----7----7----7-----|-7----7----7-----7----7----7-----|-7----7----7-----7----7----7-----|
E|---------------------------------|---------------------------------|---------------------------------|

E|---------------------------------|---------------------------------|---------------------------------|
B|---------------------------------|---------------------------------|---------------------------------|
G|-7----7----7-----7----7----7-----|-7----7----7-----7----7----7-----|-7----7----7-----7----7----7-----|
D|-7----7----7-----7----7----7-----|-7----7----7-----7----7----7-----|-7----7----7-----7----7----7-----|
A|-5----5----5-----5----5----5-----|-5----5----5-----5----5----5-----|-5----5----5-----5----5----5-----|
E|---------------------------------|---------------------------------|---------------------------------|

E|---------------------------------|---------------------------------|---------------------------------|
B|---------------------------------|---------------------------------|---------------------------------|
G|-7----7----7-----7----7----7-----|-9----9----9-----9----9----9-----|-9----9----9-----9----9----9-----|
D|-7----7----7-----7----7----7-----|-9----9----9-----9----9----9-----|-9----9----9-----9----9----9-----|
A|-5----5----5-----5----5----5-----|-7----7----7-----7----7----7-----|-7----7----7-----7----7----7-----|
E|---------------------------------|---------------------------------|---------------------------------|

E|---------------------------------|---------------------------------|---------------------------------|
B|---------------------------------|---------------------------------|---------------------------------|
G|-9----9----9-----9----9----9-----|-9----9----9-----9----9----9-----|-7----7----7-----7----7----7-----|
D|-9----9----9-----9----9----9-----|-9----9----9-----9----9----9-----|-7----7----7-----7----7----7-----|
A|-7----7----7-----7----7----7-----|-7----7----7-----7----7----7-----|-5----5----5-----5----5----5-----|
E|---------------------------------|---------------------------------|---------------------------------|

E|---------------------------------|---------------------------------|---------------------------------|
B|---------------------------------|---------------------------------|---------------------------------|
G|-7----7----7-----7----7----7-----|-7----7----7-----7----7----7-----|-7----7----7-----7----7----7-----|
D|-7----7----7-----7----7----7-----|-7----7----7-----7----7----7-----|-7----7----7-----7----7----7-----|
A|-5----5----5-----5----5----5-----|-5----5----5-----5----5----5-----|-5----5----5-----5----5----5-----|
E|---------------------------------|---------------------------------|---------------------------------|

E|------10---12---10---8----10-------------|------10---12---10---8----10-------------|
B|-8-----------------------------8----7----|-8-----------------------------8----7----|
G|-----------------------------------------|-----------------------------------------|
D|-----------------------------------------|-----------------------------------------|
A|-----------------------------------------|-----------------------------------------|
E|-----------------------------------------|-----------------------------------------|

E|------8----10---8----6----8--------------|------8----10---8----6----8--------------|
B|-6-----------------------------6----5----|-6-----------------------------6----5----|
G|-----------------------------------------|-----------------------------------------|
D|-----------------------------------------|-----------------------------------------|
A|-----------------------------------------|-----------------------------------------|
E|-----------------------------------------|-----------------------------------------|

E|------12---14---12---10---12-------------|------12---14---12---10---12-------------|
B|-10----------------------------10---9----|-10----------------------------10---9----|
G|-----------------------------------------|-----------------------------------------|
D|-----------------------------------------|-----------------------------------------|
A|-----------------------------------------|-----------------------------------------|
E|-----------------------------------------|-----------------------------------------|

E|------10---12---10---8----10-------------|------10---12---10---8----10-------------|
B|-8-----------------------------8----7----|-8-----------------------------8----7----|
G|-----------------------------------------|-----------------------------------------|
D|-----------------------------------------|-----------------------------------------|
A|-----------------------------------------|-----------------------------------------|
E|-----------------------------------------|-----------------------------------------|

E|------10---12---10---8----10-------------|------10---12---10---8----10-------------|
B|-8-----------------------------8----7----|-8-----------------------------8----7----|
G|-----------------------------------------|-----------------------------------------|
D|-----------------------------------------|-----------------------------------------|
A|-----------------------------------------|-----------------------------------------|
E|-----------------------------------------|-----------------------------------------|

E|------8----10---8----6----8--------------|------8----10---8----6----8--------------|
B|-6-----------------------------6----5----|-6-----------------------------6----5----|
G|-----------------------------------------|-----------------------------------------|
D|-----------------------------------------|-----------------------------------------|
A|-----------------------------------------|-----------------------------------------|
E|-----------------------------------------|-----------------------------------------|

E|------12---14---12---10---12-------------|------12---14---12---10---12-------------|
B|-10----------------------------10---9----|-10----------------------------10---9----|
G|-----------------------------------------|-----------------------------------------|
D|-----------------------------------------|-----------------------------------------|
A|-----------------------------------------|-----------------------------------------|
E|-----------------------------------------|-----------------------------------------|

E|------9----11---9----7----9--------------|------9----11---9----7----9--------------|
B|-7-----------------------------7----6----|-7-----------------------------7----6----|
G|-----------------------------------------|-----------------------------------------|
D|-----------------------------------------|-----------------------------------------|
A|-----------------------------------------|-----------------------------------------|
E|-----------------------------------------|-----------------------------------------|

E|------10---12---10---8----10-------------|------10---12---10---8----10-------------|
B|-8-----------------------------8----7----|-8-----------------------------8----7----|
G|-----------------------------------------|-----------------------------------------|
D|-----------------------------------------|-----------------------------------------|
A|-----------------------------------------|-----------------------------------------|
E|-----------------------------------------|-----------------------------------------|

E|----------------------|----------------------|-----------5----7----5-------------------|
B|-7-------8---7---5----|-7-------8---7---5----|-7----8-------------------8----7----8----|
G|----------------------|----------------------|-----------------------------------------|
D|----------------------|----------------------|-----------------------------------------|
A|----------------------|----------------------|-----------------------------------------|
E|----------------------|----------------------|-----------------------------------------|

E|---------------------------------|----------------------|----------------------|-----------2----3----2----0---------0----|
B|-7----8----7----8----7-----5-----|-3-------5---3--------|-3-------5---3--------|-3----5------------------------3---------|
G|---------------------------------|-----------------6----|-----------------6----|-----------------------------------------|
D|---------------------------------|----------------------|----------------------|-----------------------------------------|
A|---------------------------------|----------------------|----------------------|-----------------------------------------|
E|---------------------------------|----------------------|----------------------|-----------------------------------------|

E|-2----3----2----0----------------|----------------------|----------------------|-----------5----7----5-------------------|
B|---------------------3-----5-----|-7-------8---7---5----|-7-------8---7---5----|-7----8-------------------8----7----8----|
G|---------------------------------|----------------------|----------------------|-----------------------------------------|
D|---------------------------------|----------------------|----------------------|-----------------------------------------|
A|---------------------------------|----------------------|----------------------|-----------------------------------------|
E|---------------------------------|----------------------|----------------------|-----------------------------------------|

E|---------------------------------|----------------------|----------------------|-----------3----4----3-------------------|
B|-7----8----7----8----7-----5-----|-4-------6---4--------|-4-------6---4--------|-4----6-------------------6----4----6----|
G|---------------------------------|-----------------7----|-----------------7----|-----------------------------------------|
D|---------------------------------|----------------------|----------------------|-----------------------------------------|
A|---------------------------------|----------------------|----------------------|-----------------------------------------|
E|---------------------------------|----------------------|----------------------|-----------------------------------------|

E|-3----4----3---------------------|---------|
B|----------------6----4-----5-----|-7-------|
G|---------------------------------|---------|
D|---------------------------------|---------|
A|---------------------------------|---------|
E|---------------------------------|---------|
Iron Maiden - To Tame A Land
Iron Maiden - To Tame A Land.gp3