Iron Maiden - Total Eclipse

Iron Maiden



Title: Total Eclipse
Album: The Number Of The Beast
Artist: Iron Maiden
Author: Iron Maiden

Track 1: Guitar
E|---------|------------------------|---------|------------------------|---------|-------------1-----1-----1-----|
B|---------|------------------------|---------|------------------------|---------|-------------------1-----1-----|
G|-%-------|--------%---------------|---------|-5------%-----7----7----|---------|-------------------------2-----|
D|-%-------|-7------%-----5----5----|-5-------|-5------%-----7----7----|-7-------|-------------------------------|
A|---------|-7------------5----5----|-5-------|-3------------5----5----|-5-------|--------3----3-----3-----3-----|
E|---------|-5------------3----3----|-3-------|-3------------5----5----|-5-------|-1------1----1-----1-----1-----|

E|-------------3-----3-----3-----|------------------------|---------|-------------------------------------|
B|-------------------3-----3-----|------------------------|---------|-------------------------------------|
G|-------------------------4-----|--------%---------------|---------|-2-----2--------------2--------------|
D|-------------------------------|-7------%-----5----5----|-5-------|-2-----2--------------2--------------|
A|--------5----------------------|-7------------5----5----|-5-------|-0-----0----0----0----0----0----0----|
E|-3-----------------------------|-5------------3----3----|-3-------|-------------------------------------|

E|-------------------------------------|-------------------------------------|-------------------------------------|
B|-------------------------------------|-------------------------------------|-------------------------------------|
G|-2-----2--------------2--------------|-7-----7--------------7--------------|-9-----9--------------9--------------|
D|-3-----3--------------3--------------|-5-----5--------------5--------------|-7-----7--------------7--------------|
A|-0-----0----0----0----0----0----0----|-0-----0----0----0----0----0----0----|-0-----0----0----0----0----0----0----|
E|-------------------------------------|-------------------------------------|-------------------------------------|

E|-------------------------------------|-------------------------------------|-------------------------------------|
B|-------------------------------------|-------------------------------------|-------------------------------------|
G|-2-----2--------------2--------------|-2-----2--------------2--------------|-7-----7--------------7--------------|
D|-2-----2--------------2--------------|-3-----3--------------3--------------|-5-----5--------------5--------------|
A|-0-----0----0----0----0----0----0----|-0-----0----0----0----0----0----0----|-0-----0----0----0----0----0----0----|
E|-------------------------------------|-------------------------------------|-------------------------------------|

E|-------------------------------------|-----------------------------------------|-----------------------------------------|
B|-------------------------------------|-----------------------------------------|-----------------------------------------|
G|-9------------------------------9----|-9----9----9--------------9---------5----|-5----5----5--------------5---------7----|
D|-7-------------------------7----7----|-7----7----7--------------7---------3----|-3----3----3--------------3---------5----|
A|-0-----0----0----0----0----0----0----|-0----0----0----0----0----0----0----0----|-0----0----0----0----0----0----0----0----|
E|-------------------------------------|-----------------------------------------|-----------------------------------------|

E|-----------------------------------------|-----------------------------------------|
B|-----------------------------------------|-----------------------------------------|
G|-7----7----7--------------7---------9----|-9----9----9--------------7---------9----|
D|-5----5----5--------------5---------7----|-7----7----7--------------5---------7----|
A|-0----0----0----0----0----0----0----0----|-0----0----0----0----0----0----0----0----|
E|-----------------------------------------|-----------------------------------------|

E|-----------------------------------------|-----------------------------------------|
B|-----------------------------------------|-----------------------------------------|
G|-9----9----9--------------9---------5----|-5----5----5--------------5---------7----|
D|-7----7----7--------------7---------3----|-3----3----3--------------3---------5----|
A|-0----0----0----0----0----0----0----0----|-0----0----0----0----0----0----0----0----|
E|-----------------------------------------|-----------------------------------------|

E|-----------------------------------------|-----------------------------------------|
B|-----------------------------------------|-----------------------------------------|
G|-7----7----7--------------7---------9----|-9----9----9--------------7---------9----|
D|-5----5----5--------------5---------7----|-7----7----7--------------5---------7----|
A|-0----0----0----0----0----0----0----0----|-0----0----0----0----0----0----0----0----|
E|-----------------------------------------|-----------------------------------------|

E|-----------------------------------------|-----------------------------------------|
B|-----------------------------------------|-----------------------------------------|
G|-9----9----9--------------9---------5----|-5----5----5--------------5---------7----|
D|-7----7----7--------------7---------3----|-3----3----3--------------3---------5----|
A|-0----0----0----0----0----0----0----0----|-0----0----0----0----0----0----0----0----|
E|-----------------------------------------|-----------------------------------------|

E|-----------------------------------------|-----------------------------------------|
B|-----------------------------------------|-----------------------------------------|
G|-7----7----7--------------7---------9----|-9----9----9--------------7---------9----|
D|-5----5----5--------------5---------7----|-7----7----7--------------5---------7----|
A|-0----0----0----0----0----0----0----0----|-0----0----0----0----0----0----0----0----|
E|-----------------------------------------|-----------------------------------------|

E|-----------------------------------------|-----------------------------------------|
B|-----------------------------------------|-----------------------------------------|
G|-9----9----9--------------9---------5----|-5----5----5--------------5---------7----|
D|-7----7----7--------------7---------3----|-3----3----3--------------3---------5----|
A|-0----0----0----0----0----0----0----0----|-0----0----0----0----0----0----0----0----|
E|-----------------------------------------|-----------------------------------------|

E|-----------------------------------------|-----------------------------------------|
B|-----------------------------------------|-----------------------------------------|
G|-7----7----7--------------7---------9----|-9----9----9-----------------------------|
D|-5----5----5--------------5---------7----|-7----7----7-----------------------------|
A|-0----0----0----0----0----0----0----0----|-0----0----0----0----1----2----1---------|
E|-----------------------------------------|------------------------------------3----|

E|-----------------------------------------|-----------------------------------------|
B|-----------------------------------------|-----------------------------------------|
G|-----------------------------------------|-----------------------------------------|
D|-----------------------------------------|-----------------------------------------|
A|-----------------------------------------|---------------------1----2----1---------|
E|-0----0----0----0----0----0----0----0----|-0----0----0----0-------------------3----|

E|-----------------------------------------|-------------------------------------|-----------------------------------------|
B|-----------------------------------------|-------------------------------------|-----------------------------------------|
G|-----------------------------------------|-------------------------------------|-----------------------------------------|
D|-----------------------------------------|------2----2-------------------------|------------------------------------12---|
A|-----------------------------------------|------0----0-----1----2----1---------|------------------------------------10---|
E|-0----0----0----0----0----0----0----3----|-3------------------------------3----|-0----0----0----0----0----0----0---------|

E|-----------------------------------------|-----------------------------------------|
B|-----------------------------------------|-----------------------------------------|
G|------------------------------------9----|-9----9----9--------------9---------5----|
D|-12---7----7----7----7--------------7----|-7----7----7--------------7---------3----|
A|-10---5----5----5----5--------------0----|-0----0----0----0----0----0----0----0----|
E|--------------------------8----7---------|-----------------------------------------|

E|-----------------------------------------|-----------------------------------------|
B|-----------------------------------------|-----------------------------------------|
G|-5----5----5--------------5---------7----|-7----7----7--------------7---------9----|
D|-3----3----3--------------3---------5----|-5----5----5--------------5---------7----|
A|-0----0----0----0----0----0----0----0----|-0----0----0----0----0----0----0----0----|
E|-----------------------------------------|-----------------------------------------|

E|-----------------------------------------|-----------------------------------------|
B|-----------------------------------------|-----------------------------------------|
G|-9----9----9--------------7---------9----|-9----9----9--------------9---------5----|
D|-7----7----7--------------5---------7----|-7----7----7--------------7---------3----|
A|-0----0----0----0----0----0----0----0----|-0----0----0----0----0----0----0----0----|
E|-----------------------------------------|-----------------------------------------|

E|-----------------------------------------|-----------------------------------------|
B|-----------------------------------------|-----------------------------------------|
G|-5----5----5--------------5---------7----|-7----7----7--------------7---------9----|
D|-3----3----3--------------3---------5----|-5----5----5--------------5---------7----|
A|-0----0----0----0----0----0----0----0----|-0----0----0----0----0----0----0----0----|
E|-----------------------------------------|-----------------------------------------|

E|-----------------------------------------|-----------------------------------------|
B|-----------------------------------------|-----------------------------------------|
G|-9----9----9--------------7---------9----|-9----9----9--------------9---------5----|
D|-7----7----7--------------5---------7----|-7----7----7--------------7---------3----|
A|-0----0----0----0----0----0----0----0----|-0----0----0----0----0----0----0----0----|
E|-----------------------------------------|-----------------------------------------|

E|-----------------------------------------|-----------------------------------------|
B|-----------------------------------------|-----------------------------------------|
G|-5----5----5--------------5---------7----|-7----7----7--------------7---------9----|
D|-3----3----3--------------3---------5----|-5----5----5--------------5---------7----|
A|-0----0----0----0----0----0----0----0----|-0----0----0----0----0----0----0----0----|
E|-----------------------------------------|-----------------------------------------|

E|-----------------------------------------|-----------------------------------------|
B|-----------------------------------------|-----------------------------------------|
G|-9----9----9--------------7---------9----|-9----9----9--------------9---------5----|
D|-7----7----7--------------5---------7----|-7----7----7--------------7---------3----|
A|-0----0----0----0----0----0----0----0----|-0----0----0----0----0----0----0----0----|
E|-----------------------------------------|-----------------------------------------|

E|-----------------------------------------|-----------------------------------------|
B|-----------------------------------------|-----------------------------------------|
G|-5----5----5--------------5---------7----|-7----7----7--------------7---------9----|
D|-3----3----3--------------3---------5----|-5----5----5--------------5---------7----|
A|-0----0----0----0----0----0----0----0----|-0----0----0----0----0----0----0----0----|
E|-----------------------------------------|-----------------------------------------|

E|-----------------------------------------|-----------------------------------------|
B|-----------------------------------------|-----------------------------------------|
G|-9----9----9--------------7---------9----|-9----7----7--------------7---------9----|
D|-7----7----7--------------5---------7----|-7----5----5--------------5---------7----|
A|-0----0----0----0----0----0----0----0----|-0----0----0----0----0----0----0----0----|
E|-----------------------------------------|-----------------------------------------|

E|-----------------------------------------|-----------------------------------------|
B|-----------------------------------------|-----------------------------------------|
G|-9----9----9-----------------------------|-----------------------------------------|
D|-7----7----7-----------------------------|-----------------------------------------|
A|-0----0----0----0----1----2----1---------|-----------------------------------------|
E|------------------------------------3----|-0----0----0----0----0----0----0----0----|

E|-----------------------------------------|-----------------------------------------|
B|-----------------------------------------|-----------------------------------------|
G|-----------------------------------------|-----------------------------------------|
D|-----------------------------------------|-----------------------------------------|
A|---------------------1----2----1---------|-----------------------------------------|
E|-0----0----0----0-------------------3----|-0----0----0----0----0----0----0----3----|

E|-------------------------------------|-----------------------------------------|-----------------------------------------|
B|-------------------------------------|-----------------------------------------|-----------------------------------------|
G|-------------------------------------|-----------------------------------------|-----------------------------------------|
D|------2----2-------------------------|------------------------------------12---|-12---7----7----7----7-------------------|
A|------0----0-----1----2----1---------|------------------------------------10---|-10---5----5----5----5--------------7----|
E|-3------------------------------3----|-0----0----0----0----0----0----0---------|--------------------------8----7----5----|

E|-------------------|-------------------|-------------------|-------------------|-------------------|
B|-------------------|-------------------|-------------------|-------------------|-------------------|
G|-------------------|-------------------|-------------------|-------------------|-------------------|
D|-------------------|--------------5----|-5-------5----7----|-7-------7---------|-------------------|
A|-7-------7----5----|-5-------5----3----|-3-------3----5----|-5-------5----3----|-3-------3----5----|
E|-5-------5----3----|-3-------3---------|-------------------|--------------1----|-1-------1----3----|

E|-------------------|-------------------|-------------------|---------------|-----------------------------------------------------|
B|-------------------|-------------------|-------------------|---------------|-----------------------------------------------------|
G|-------------------|-------------------|-------------------|---------%-----|-----------------------------------------------------|
D|-------------------|-------------------|-------------------|---------%-----|-----------------------------------------------------|
A|-5-------5----7----|-7-------7----5----|-5-------5----7----|-7-------------|-----------------------------------------------------|
E|-3-------3----5----|-5-------5----3----|-3-------3----5----|-5-------------|-0-----0----0----0----0----0-----0----0----0----0----|

E|---------------------------------------|-----------------------------------------------------|
B|---------------------------------------|-----------------------------------------------------|
G|---------------------------------------|-----------------------------------------------------|
D|---------------------------5-----7-----|-----------------------------------------------------|
A|---------------------------3-----5-----|-----------------------------------------------------|
E|-0-----0----0----0----0----------------|-0-----0----0----0----0----0-----0----0----0----0----|

E|---------------------------------------|-----------------------------------------------------|
B|---------------------------------------|-----------------------------------------------------|
G|---------------------------------------|-----------------------------------------------------|
D|---------------------------5-----7-----|-----------------------------------------------------|
A|---------------------------3-----5-----|-----------------------------------------------------|
E|-0-----0----0----0----0----------------|-0-----0----0----0----0----0-----0----0----0----0----|

E|---------------------------------------|-----------------------------------------------------|
B|---------------------------------------|-----------------------------------------------------|
G|---------------------------------------|-----------------------------------------------------|
D|---------------------------5-----7-----|-----------------------------------------------------|
A|---------------------------3-----5-----|-----------------------------------------------------|
E|-0-----0----0----0----0----------------|-0-----0----0----0----0----0-----0----0----0----0----|

E|---------------------------------------|-----------------------------------------------------|
B|---------------------------------------|-----------------------------------------------------|
G|---------------------------------------|-----------------------------------------------------|
D|---------------------------5-----7-----|-----------------------------------------------------|
A|---------------------------3-----5-----|-----------------------------------------------------|
E|-0-----0----0----0----0----------------|-2-----2----2----2----2----2-----2----2----2----2----|

E|------------------------------------------------|-----------------------------------------------------|
B|------------------------------------------------|-----------------------------------------------------|
G|------------------------------------------------|-----------------------------------------------------|
D|------------------------------------------------|-----------------------------------------------------|
A|-------------------------------------5----5-----|-----------------------------------------------------|
E|-2-----2----2----2----2----2----2----3----3-----|-2-----2----2----2----2----2-----2----2----2----2----|

E|------------------------------------------------|-----------------------------------------------------|
B|------------------------------------------------|-----------------------------------------------------|
G|------------------------------------------------|-----------------------------------------------------|
D|------------------------------------------------|-----------------------------------------------------|
A|-------------------------------------5----5-----|-----------------------------------------------------|
E|-2-----2----2----2----2----2----2----3----3-----|-2-----2----2----2----2----2-----2----2----2----2----|

E|------------------------------------------------|-----------------------------------------------------|
B|------------------------------------------------|-----------------------------------------------------|
G|------------------------------------------------|-----------------------------------------------------|
D|------------------------------------------------|-----------------------------------------------------|
A|-------------------------------------5----5-----|-----------------------------------------------------|
E|-2-----2----2----2----2----2----2----3----3-----|-2-----2----2----2----2----2-----2----2----2----2----|

E|-------------------------|-------------------------|---------------|---------------|
B|-------------------------|-------------------------|---------------|---------------|
G|-------------------------|-------------------------|---------------|---------------|
D|-5-----4-----------------|-------------------------|-7-------------|-5-------------|
A|-------------7-----5-----|-4-----------------------|-5------7------|-3------5------|
E|-------------------------|-------7-----5-----3-----|--------5------|--------3------|

E|---------------|---------------|---------------|---------------|---------------|---------------|
B|---------------|---------------|---------------|---------------|---------------|---------------|
G|---------------|---------------|---------------|---------------|---------------|---------------|
D|-7-------------|-5-------------|-7-------------|-5-------------|-7-------------|-5-------------|
A|-5------7------|-3------5------|-5------7------|-3------5------|-5------7------|-3------5------|
E|--------5------|--------3------|--------5------|--------3------|--------5------|--------3------|

E|------------------------|---------|------------------------|---------|-------------1-----1-----1-----|
B|------------------------|---------|------------------------|---------|-------------------1-----1-----|
G|--------%---------------|---------|-5------%-----7----7----|---------|-------------------------2-----|
D|-7------%-----5----5----|-5-------|-5------%-----7----7----|-7-------|-------------------------------|
A|-7------------5----5----|-5-------|-3------------5----5----|-5-------|--------3----3-----3-----3-----|
E|-5------------3----3----|-3-------|-3------------5----5----|-5-------|-1------1----1-----1-----1-----|

E|-------------3-----3-----3-----|------------------------|---------|------------------------|
B|-------------------3-----3-----|------------------------|---------|------------------------|
G|-------------------------4-----|--------%---------------|---------|--------%---------------|
D|-------------------------------|-7------%-----5----5----|-5-------|-7------%-----5----5----|
A|--------5----------------------|-7------------5----5----|-5-------|-7------------5----5----|
E|-3-----------------------------|-5------------3----3----|-3-------|-5------------3----3----|

E|---------|
B|---------|
G|---------|
D|-5-------|
A|-5-------|
E|-3-------|
Iron Maiden - Total Eclipse
Iron Maiden - Total Eclipse.gp3