Iron Maiden - Transylvania (3)

Iron Maiden - Transylvania (3)

Iron Maiden



Title: Transylvania
Album: Iron Maiden
Artist: Iron Maiden
Author: 

Track 1: Guitar 2
E|-----------------------------------------------------|-----------------------------------------|
B|-----------------------------------------------------|-----------------------------------------|
G|-------%----%----%----%----%-----%----%----%----%----|-%-----%----%----%----%------------------|
D|-7-----%----%----%----%----%-----%----%----%----%----|-%-----%----%----%----%----5------10-----|
A|-5---------------------------------------------------|---------------------------3------8------|
E|-----------------------------------------------------|-----------------------------------------|

E|-------------------------------------|---------------------------------|-------------------------------------|
B|-------------------------------------|---------------------------------|-------------------------------------|
G|-------%-----%-----%-----%-----%-----|-%-----%-----%-------------------|-------%-----%-----%-----%-----%-----|
D|-9-----%-----%-----%-----%-----%-----|-%-----%-----%-----7------12-----|-9-----%-----%-----%-----%-----%-----|
A|-7-----------------------------------|-------------------5------10-----|-7-----------------------------------|
E|-------------------------------------|---------------------------------|-------------------------------------|

E|---------------------------------|-------------------------------------------------------------------|
B|---------------------------------|-------------------------------------------------------------------|
G|-%-----%-----%-------------------|-------------------------------------------------------------------|
D|-%-----%-----%-----5------7------|-2----2---2---2----2----5----4----2----2---2---2----2----5----4----|
A|-------------------3------5------|-------------------------------------------------------------------|
E|---------------------------------|-------------------------------------------------------------------|

E|-------------------------------------------------------------------|-------------------------------------------------------------------|
B|-------------------------------------------------------------------|-------------------------------------------------------------------|
G|-------------------------------------------------------------------|-------------------------------------------------------------------|
D|----------------------------------2----2---2---2----2----5----4----|-2----2---2---2----2----5----4----2----2---2---2----2----5----4----|
A|-5----5---5---5----5----2----5-------------------------------------|-------------------------------------------------------------------|
E|-------------------------------------------------------------------|-------------------------------------------------------------------|

E|-------------------------------------------------------------------|-------------------------------------------------------------------|
B|-------------------------------------------------------------------|-------------------------------------------------------------------|
G|-------------------------------------------------------------------|-------------------------------------------------------------------|
D|----------------------------------2----2---2---2----2--------------|-------------------------------------------------------------------|
A|-5----5---5---5----5----2----5---------------------------5----4----|-2----2---2---2----2----5----4----2----2---2---2----2----5----4----|
E|-------------------------------------------------------------------|-------------------------------------------------------------------|

E|-------------------------------------------------------------------|-------------------------------------------------------------------|
B|-------------------------------------------------------------------|-------------------------------------------------------------------|
G|-------------------------------------------------------------------|-------------------------------------------------------------------|
D|-------------------------------------------------------------------|-------------------------------------------------------------------|
A|----------------------------------2----2---2---2----2----5----4----|-2----2---2---2----2----5----4----2----2---2---2----2----5----4----|
E|-5----5---5---5----5----2----5-------------------------------------|-------------------------------------------------------------------|

E|-------------------------------------------------------------------|-------------------------------------------------------------------|
B|-------------------------------------------------------------------|-------------------------------------------------------------------|
G|-------------------------------------------------------------------|-------------------------------------------------------------------|
D|---------------------------------------------------------5----4----|-2----2---2---2----2----5----4----2----2---2---2----2----5----4----|
A|----------------------------------2----2---2---2----2--------------|-------------------------------------------------------------------|
E|-5----5---5---5----5----2----5-------------------------------------|-------------------------------------------------------------------|

E|-------------------------------------------------------------------|-------------------------------------------------------------------|
B|-------------------------------------------------------------------|-------------------------------------------------------------------|
G|-------------------------------------------------------------------|-------------------------------------------------------------------|
D|----------------------------------2----2---2---2----2----5----4----|-2----2---2---2----2----5----4----2----2---2---2----2----5----4----|
A|-5----5---5---5----5----2----5-------------------------------------|-------------------------------------------------------------------|
E|-------------------------------------------------------------------|-------------------------------------------------------------------|

E|-------------------------------------------------------------------|-------------------------------------------------------------------|
B|-------------------------------------------------------------------|-------------------------------------------------------------------|
G|-------------------------------------------------------------------|-------------------------------------------------------------------|
D|----------------------------------2----2---2---2----2--------------|-------------------------------------------------------------------|
A|-5----5---5---5----5----2----5---------------------------5----4----|-2----2---2---2----2----5----4----2----2---2---2----2----5----4----|
E|-------------------------------------------------------------------|-------------------------------------------------------------------|

E|-------------------------------------------------------------------|-------------------------------------------------------------------|
B|-------------------------------------------------------------------|-------------------------------------------------------------------|
G|-------------------------------------------------------------------|-------------------------------------------------------------------|
D|-------------------------------------------------------------------|-------------------------------------------------------------------|
A|-0----0---0---0----0---------0----2----2---2---2----2----5----4----|-2----2---2---2----2----5----4----2----2---2---2----2----5----4----|
E|------------------------2------------------------------------------|-------------------------------------------------------------------|

E|-------------------------------------------------------------------|-------------------------------------|
B|-------------------------------------------------------------------|-12-----10-----8----8----8----8------|
G|---------------------------------------------------------%----%----|-14-----12-----10---12---12---10-----|
D|---------------------------------------------------------%----%----|-------------------------------------|
A|----------------------------------2----2---2---2----2--------------|-------------------------------------|
E|-5----5---5---5----5----2----5-------------------------------------|-------------------------------------|

E|---------------------------------------------------------|-------------------------------------|
B|-8----7---------10---8----7----8----7--------------------|-12-----10-----8----8----8----8------|
G|-----------9-----------------------------9----9-----%----|-14-----12-----10---12---12---10-----|
D|----------------------------------------------------%----|-------------------------------------|
A|---------------------------------------------------------|-------------------------------------|
E|---------------------------------------------------------|-------------------------------------|

E|-------------------------------|-------------------------------------------------------------------|
B|-8----7---------10---8----7----|-------------------------------------------------------------------|
G|-----------9-------------------|-------------------------------------------------------------------|
D|-------------------------------|-2----2---2---2----2----5----4----2----2---2---2----2----5----4----|
A|-------------------------------|-------------------------------------------------------------------|
E|-------------------------------|-------------------------------------------------------------------|

E|-------------------------------------------------------------------|-------------------------------------------------------------------|
B|-------------------------------------------------------------------|-------------------------------------------------------------------|
G|-------------------------------------------------------------------|-------------------------------------------------------------------|
D|----------------------------------2----2---2---2----2----5----4----|-2----2---2---2----2----5----4----2----2---2---2----2----5----4----|
A|-5----5---5---5----5----2----5-------------------------------------|-------------------------------------------------------------------|
E|-------------------------------------------------------------------|-------------------------------------------------------------------|

E|-------------------------------------------------------------------|-------------------------------------------------------------------|
B|-------------------------------------------------------------------|-------------------------------------------------------------------|
G|-------------------------------------------------------------------|-------------------------------------------------------------------|
D|----------------------------------2----2---2---2----2--------------|-------------------------------------------------------------------|
A|-5----5---5---5----5----2----5---------------------------5----4----|-2----2---2---2----2----5----4----2----2---2---2----2----5----4----|
E|-------------------------------------------------------------------|-------------------------------------------------------------------|

E|-------------------------------------------------------------------|-------------------------------------------------------------------|
B|-------------------------------------------------------------------|-------------------------------------------------------------------|
G|-------------------------------------------------------------------|-------------------------------------------------------------------|
D|-------------------------------------------------------------------|-------------------------------------------------------------------|
A|-0----0---0---0----0---------0----2----2---2---2----2----5----4----|-2----2---2---2----2----5----4----2----2---2---2----2----5----4----|
E|------------------------2------------------------------------------|-------------------------------------------------------------------|

E|-------------------------------------------------------------------|-------------------------------------|
B|-------------------------------------------------------------------|-12-----10-----8----8----8----8------|
G|---------------------------------------------------------%----%----|-14-----12-----10---12---12---10-----|
D|---------------------------------------------------------%----%----|-------------------------------------|
A|----------------------------------2----2---2---2----2--------------|-------------------------------------|
E|-5----5---5---5----5----2----5-------------------------------------|-------------------------------------|

E|---------------------------------------------------------|-------------------------------------|
B|-8----7---------10---8----7----8----7--------------------|-12-----10-----8----8----8----8------|
G|-----------9-----------------------------9----9-----%----|-14-----12-----10---12---12---10-----|
D|----------------------------------------------------%----|-------------------------------------|
A|---------------------------------------------------------|-------------------------------------|
E|---------------------------------------------------------|-------------------------------------|

E|-------------------------------|-------------------------------------|---------------------------------|
B|-8----7---------10---8----7----|-------------------------------------|---------------------------------|
G|-----------9-------------------|-------%-----%-----%-----%-----%-----|-%-----%-----%-------------------|
D|-------------------------------|-9-----%-----%-----%-----%-----%-----|-%-----%-----%-----7------12-----|
A|-------------------------------|-7-----------------------------------|-------------------5------10-----|
E|-------------------------------|-------------------------------------|---------------------------------|

E|-------------------------------------|---------------------------------|-------------------------------------------------|
B|-------------------------------------|---------------------------------|-------------------------------------------------|
G|-------%-----%-----%-----%-----%-----|-%-----%-----%-------------------|-------------------------------------------------|
D|-9-----%-----%-----%-----%-----%-----|-%-----%-----%-----5------7------|-------5----5-----5----5----4--------------------|
A|-7-----------------------------------|-------------------3------5------|-7-------------------------------7----5-----7----|
E|-------------------------------------|---------------------------------|-------------------------------------------------|

E|-------------------------------------------------|-------------------------------------------------|
B|-------------------------------------------------|-------------------------------------------------|
G|-------------------------------------------------|-------------------------------------------------|
D|-------5----5-----5----5----4--------------------|-------5----5-----5----5----4--------------------|
A|-7-------------------------------7----5-----7----|-7-------------------------------7----5-----7----|
E|-------------------------------------------------|-------------------------------------------------|

E|-------------------------------------------------|-------------------------------------------------|
B|-------------------------------------------------|-------------------------------------------------|
G|-------------------------------------------------|-------------------------------------------------|
D|-------5----5-----5----5----4--------------------|-------5----5-----5----5----4--------------------|
A|-7-------------------------------7----5-----7----|-7-------------------------------7----5-----7----|
E|-------------------------------------------------|-------------------------------------------------|

E|-------------------------------------------------|-------------------------------------------------|
B|-------------------------------------------------|-------------------------------------------------|
G|-------------------------------------------------|-------------------------------------------------|
D|-------5----5-----5----5----4--------------------|-------5----5-----5----5----4--------------------|
A|-7-------------------------------7----5-----7----|-7-------------------------------7----5-----7----|
E|-------------------------------------------------|-------------------------------------------------|

E|-------------------------------------------------|-------------------------------------------------|
B|-------------------------------------------------|-------------------------------------------------|
G|-------------------------------------------------|-------------------------------------------------|
D|-------5----5-----5----5----4--------------------|-------5----5-----5----5----4--------------------|
A|-7-------------------------------7----5-----7----|-7-------------------------------7----5-----7----|
E|-------------------------------------------------|-------------------------------------------------|

E|-------------------------------------------------|-------------------------------------------------|
B|-------------------------------------------------|-------------------------------------------------|
G|-------------------------------------------------|-------------------------------------------------|
D|-------5----5-----5----5----4--------------------|-------5----5-----5----5----4--------------------|
A|-7-------------------------------7----5-----7----|-7-------------------------------7----5-----7----|
E|-------------------------------------------------|-------------------------------------------------|

E|-------------------------------------------------|-------------------------------------------------|
B|-------------------------------------------------|-------------------------------------------------|
G|-------------------------------------------------|-------------------------------------------------|
D|-------5----5-----5----5----4--------------------|-------5----5-----5----5----4--------------------|
A|-7-------------------------------7----5-----7----|-7-------------------------------7----5-----7----|
E|-------------------------------------------------|-------------------------------------------------|

E|-------------------------------------------------|-------------------------------------------------|
B|-------------------------------------------------|-------------------------------------------------|
G|-------------------------------------------------|-------------------------------------------------|
D|-------5----5-----5----5----4--------------------|-------5----5-----5----5----4--------------------|
A|-7-------------------------------7----5-----7----|-7-------------------------------7----5-----7----|
E|-------------------------------------------------|-------------------------------------------------|

E|-------------------------------------------------|-------------------------------------------------|
B|-------------------------------------------------|-------------------------------------------------|
G|-------------------------------------------------|-------------------------------------------------|
D|-------5----5-----5----5----4--------------------|-------5----5-----5----5----4--------------------|
A|-7-------------------------------7----5-----7----|-7-------------------------------7----5-----7----|
E|-------------------------------------------------|-------------------------------------------------|

E|-------------------------------------------------|-------------------------------------------------|
B|-------------------------------------------------|-------------------------------------------------|
G|-------------------------------------------------|-------------------------------------------------|
D|-------5----5-----5----5----4--------------------|-------5----5-----5----5----4--------------------|
A|-7-------------------------------7----5-----7----|-7-------------------------------7----5-----7----|
E|-------------------------------------------------|-------------------------------------------------|

E|-------------------------------------------------|-------------------------------------------------|
B|-------------------------------------------------|-------------------------------------------------|
G|-------------------------------------------------|-------------------------------------------------|
D|-------5----5-----5----5----4--------------------|-------5----5-----5----5----4--------------------|
A|-7-------------------------------7----5-----7----|-7-------------------------------7----5-----7----|
E|-------------------------------------------------|-------------------------------------------------|

E|-------------------------------------------------|-------------------------------------------------|
B|-------------------------------------------------|-------------------------------------------------|
G|-------------------------------------------------|-------------------------------------------------|
D|-------5----5-----5----5----4--------------------|-------5----5-----5----5----4--------------------|
A|-7-------------------------------7----5-----7----|-7-------------------------------7----5-----7----|
E|-------------------------------------------------|-------------------------------------------------|

E|-------------------------------------------------|-------------------------------------------------|
B|-------------------------------------------------|-------------------------------------------------|
G|-------------------------------------------------|-------------------------------------------------|
D|-------5----5-----5----5----4--------------------|-------5----5-----5----5----4--------------------|
A|-7-------------------------------7----5-----7----|-7-------------------------------7----5-----7----|
E|-------------------------------------------------|-------------------------------------------------|

E|-------------------------------------------------|-------------------------------------------------|
B|-------------------------------------------------|-------------------------------------------------|
G|-------------------------------------------------|-------------------------------------------------|
D|-------5----5-----5----5----4--------------------|-------5----5-----5----5----4--------------------|
A|-7-------------------------------7----5-----7----|-7-------------------------------7----5-----7----|
E|-------------------------------------------------|-------------------------------------------------|

E|-------------------------------------------------|-------------------------------------------------|
B|-------------------------------------------------|-------------------------------------------------|
G|-------------------------------------------------|-------------------------------------------------|
D|-------5----5-----5----5----4--------------------|-------5----5-----5----5----4--------------------|
A|-7-------------------------------7----5-----7----|-7-------------------------------7----5-----7----|
E|-------------------------------------------------|-------------------------------------------------|

E|-------------------------------------------------|-------------------------------------------------|
B|-------------------------------------------------|-------------------------------------------------|
G|-------------------------------------------------|-------------------------------------------------|
D|-------5----5-----5----5----4--------------------|-------5----5-----5----5----4--------------------|
A|-7-------------------------------7----5-----7----|-7-------------------------------7----5-----7----|
E|-------------------------------------------------|-------------------------------------------------|

E|-------------------------------------------------|-------------------------------------------------|
B|-------------------------------------------------|-------------------------------------------------|
G|-------------------------------------------------|-------------------------------------------------|
D|-------5----5-----5----5----4--------------------|-------5----5-----5----5----4--------------------|
A|-7-------------------------------7----5-----7----|-7-------------------------------7----5-----7----|
E|-------------------------------------------------|-------------------------------------------------|

E|-------------------------------------------------|-------------------------------------------------|
B|-------------------------------------------------|-------------------------------------------------|
G|-------------------------------------------------|-------------------------------------------------|
D|-------5----5-----5----5----4--------------------|-------5----5-----5----5----4--------------------|
A|-7-------------------------------7----5-----7----|-7-------------------------------7----5-----7----|
E|-------------------------------------------------|-------------------------------------------------|

E|-------------------------------------------------|-------------------------------------------------|
B|-------------------------------------------------|-------------------------------------------------|
G|-------------------------------------------------|-------------------------------------------------|
D|-------5----5-----5----5----4--------------------|-------5----5-----5----5----4--------------------|
A|-7-------------------------------7----5-----7----|-7-------------------------------7----5-----7----|
E|-------------------------------------------------|-------------------------------------------------|

E|-------------------------------------------------|-------------------------------------------------|
B|-------------------------------------------------|-------------------------------------------------|
G|-------------------------------------------------|-------------------------------------------------|
D|-------5----5-----5----5----4--------------------|-------5----5-----5----5----4--------------------|
A|-7-------------------------------7----5-----7----|-7-------------------------------7----5-----7----|
E|-------------------------------------------------|-------------------------------------------------|

E|-------------------------------------------------|-------------------------------------------------|
B|-------------------------------------------------|-------8----8-----8----8----7--------------------|
G|-------------------------------------------------|---------------------------------9----7-----9----|
D|-------5----5-----5----5----4--------------------|-------------------------------------------------|
A|-7-------------------------------7----5-----7----|-7-----------------------------------------------|
E|-------------------------------------------------|-------------------------------------------------|

E|-------------------------------------------------|-------------------------------------------------|
B|-------8----8-----8----8----7--------------------|-------8----8-----8----8----7--------------------|
G|-9-------------------------------9----7-----9----|-9-------------------------------9----7-----9----|
D|-------------------------------------------------|-------------------------------------------------|
A|-------------------------------------------------|-------------------------------------------------|
E|-------------------------------------------------|-------------------------------------------------|

E|-------------------------------------------------|-------------------------------------------------|
B|-------8----8-----8----8----7--------------------|-------8----8-----8----8----7--------------------|
G|-9-------------------------------9----7-----9----|-9-------------------------------9----7-----9----|
D|-------------------------------------------------|-------------------------------------------------|
A|-------------------------------------------------|-------------------------------------------------|
E|-------------------------------------------------|-------------------------------------------------|

E|-------------------------------------------------|-------------------------------------------------|
B|-------8----8-----8----8----7--------------------|-------8----8-----8----8----7--------------------|
G|-9-------------------------------9----7-----9----|-9-------------------------------9----7-----9----|
D|-------------------------------------------------|-------------------------------------------------|
A|-------------------------------------------------|-------------------------------------------------|
E|-------------------------------------------------|-------------------------------------------------|

E|-------------------------------------------------|-----------------------------------------------------|
B|-------8----8-----8----8----7--------------------|-------8----8-----8----8----7------------------------|
G|-9-------------------------------9----7-----9----|-9-------------------------------9----7----%---------|
D|-------------------------------------------------|-------------------------------------------%---------|
A|-------------------------------------------------|------------------------------------------------7----|
E|-------------------------------------------------|-----------------------------------------------------|

E|-------------------------------------------------|-------------------------------------------------|
B|-------------------------------------------------|-------------------------------------------------|
G|-------------------------------------------------|-------------------------------------------------|
D|-------5----5-----5----5----4--------------------|-------5----5-----5----5----4--------------------|
A|-7-------------------------------7----5-----7----|-7-------------------------------7----5-----7----|
E|-------------------------------------------------|-------------------------------------------------|

E|-------------------------------------------------|-------------------------------------------------|
B|-------------------------------------------------|-------------------------------------------------|
G|-------------------------------------------------|-------------------------------------------------|
D|-------5----5-----5----5----4--------------------|-------5----5-----5----5----4--------------------|
A|-7-------------------------------7----5-----7----|-7-------------------------------7----5-----7----|
E|-------------------------------------------------|-------------------------------------------------|

E|-------------------------------------------------|-------------------------------------------------|
B|-------------------------------------------------|-------------------------------------------------|
G|-------------------------------------------------|-------------------------------------------------|
D|-------5----5-----5----5----4--------------------|-------5----5-----5----5----4--------------------|
A|-7-------------------------------7----5-----7----|-7-------------------------------7----5-----7----|
E|-------------------------------------------------|-------------------------------------------------|

E|-------------------------------------------------|-------------------------------------------------|
B|-------------------------------------------------|-------------------------------------------------|
G|-------------------------------------------------|-------------------------------------------------|
D|-------5----5-----5----5----4--------------------|-------5----5-----5----5----4--------------------|
A|-7-------------------------------7----5-----7----|-7-------------------------------7----5-----7----|
E|-------------------------------------------------|-------------------------------------------------|

E|-------------------------------------------------|-------------------------------------------------|
B|-------------------------------------------------|-------------------------------------------------|
G|-------------------------------------------------|-------------------------------------------------|
D|-------5----5-----5----5----4--------------------|-------5----5-----5----5----4--------------------|
A|-7-------------------------------7----5-----7----|-7-------------------------------7----5-----7----|
E|-------------------------------------------------|-------------------------------------------------|

E|-------------------------------------------------|-------------------------------------------------|
B|-------------------------------------------------|-------------------------------------------------|
G|-------------------------------------------------|-------------------------------------------------|
D|-------5----5-----5----5----4--------------------|-------5----5-----5----5----4--------------------|
A|-7-------------------------------7----5-----7----|-7-------------------------------7----5-----7----|
E|-------------------------------------------------|-------------------------------------------------|

E|-------------------------------------------------|-------------------------------------------------|
B|-------------------------------------------------|-------------------------------------------------|
G|-------------------------------------------------|-------------------------------------------------|
D|-------5----5-----5----5----4--------------------|-------5----5-----5----5----4--------------------|
A|-7-------------------------------7----5-----7----|-7-------------------------------7----5-----7----|
E|-------------------------------------------------|-------------------------------------------------|

E|-------------------------------------------------|-------------------------------------------------|
B|-------------------------------------------------|-------------------------------------------------|
G|-------------------------------------------------|-------------------------------------------------|
D|-------5----5-----5----5----4--------------------|-------5----5-----5----5----4--------------------|
A|-7-------------------------------7----5-----7----|-7-------------------------------7----5-----7----|
E|-------------------------------------------------|-------------------------------------------------|

E|-------------------------------------------------|-------------------------------------------------|
B|-------------------------------------------------|-------------------------------------------------|
G|-------------------------------------------------|-------------------------------------------------|
D|-------5----5-----5----5----4--------------------|-------5----5-----5----5----4--------------------|
A|-7-------------------------------7----5-----7----|-7-------------------------------7----5-----7----|
E|-------------------------------------------------|-------------------------------------------------|

E|-------------------------------------------------|-------------------------------------------------|
B|-------------------------------------------------|-------------------------------------------------|
G|-------------------------------------------------|-------------------------------------------------|
D|-------5----5-----5----5----4--------------------|-------5----5-----5----5----4--------------------|
A|-7-------------------------------7----5-----7----|-7-------------------------------7----5-----7----|
E|-------------------------------------------------|-------------------------------------------------|

E|-------------------------------------------------|-------------------------------------------------|
B|-------------------------------------------------|-------------------------------------------------|
G|-------------------------------------------------|-------------------------------------------------|
D|-------5----5-----5----5----4--------------------|-------5----5-----5----5----4--------------------|
A|-7-------------------------------7----5-----7----|-7-------------------------------7----5-----7----|
E|-------------------------------------------------|-------------------------------------------------|

E|-------------------------------------------------|-------------------------------------------------|
B|-------------------------------------------------|-------------------------------------------------|
G|-------------------------------------------------|-------------------------------------------------|
D|-------5----5-----5----5----4--------------------|-------5----5-----5----5----4--------------------|
A|-7-------------------------------7----5-----7----|-7-------------------------------7----5-----7----|
E|-------------------------------------------------|-------------------------------------------------|

E|-------------------------------------------------|-------------------------------------------------|
B|-------------------------------------------------|-------------------------------------------------|
G|-------------------------------------------------|-------------------------------------------------|
D|-------5----5-----5----5----4--------------------|-------5----5-----5----5----4--------------------|
A|-7-------------------------------7----5-----7----|-7-------------------------------7----5-----7----|
E|-------------------------------------------------|-------------------------------------------------|

E|-------------------------------------------------|-------------------------------------------------|
B|-------------------------------------------------|-------------------------------------------------|
G|-------------------------------------------------|-------------------------------------------------|
D|-------5----5-----5----5----4--------------------|-------5----5-----5----5----4--------------------|
A|-7-------------------------------7----5-----7----|-7-------------------------------7----5-----7----|
E|-------------------------------------------------|-------------------------------------------------|

E|-------------------------------------------------|-------------------------------------------------|
B|-------------------------------------------------|-------------------------------------------------|
G|-------------------------------------------------|-------------------------------------------------|
D|-------5----5-----5----5----4--------------------|-------5----5-----5----5----4--------------------|
A|-7-------------------------------7----5-----7----|-7-------------------------------7----5-----7----|
E|-------------------------------------------------|-------------------------------------------------|

E|-------------------------------------------------|-------------------------------------------------|
B|-------------------------------------------------|-------------------------------------------------|
G|-------------------------------------------------|-------------------------------------------------|
D|-------5----5-----5----5----4--------------------|-------5----5-----5----5----4--------------------|
A|-7-------------------------------7----5-----7----|-7-------------------------------7----5-----7----|
E|-------------------------------------------------|-------------------------------------------------|

E|-------------------------------------------------|-------------------------------------------------|
B|-------------------------------------------------|-------------------------------------------------|
G|-------------------------------------------------|-------------------------------------------------|
D|-------5----5-----5----5----4--------------------|-------5----5-----5----5----4--------------------|
A|-7-------------------------------7----5-----7----|-7-------------------------------7----5-----7----|
E|-------------------------------------------------|-------------------------------------------------|

E|-------------------------------------------------|-------------------------------------------------|
B|-------------------------------------------------|-------------------------------------------------|
G|-------------------------------------------------|-------------------------------------------------|
D|-------5----5-----5----5----4--------------------|-------5----5-----5----5----4--------------------|
A|-7-------------------------------7----5-----7----|-7-------------------------------7----5-----7----|
E|-------------------------------------------------|-------------------------------------------------|

E|-------------------------------------------------|-------------------------------------------------|
B|-------------------------------------------------|-------------------------------------------------|
G|-------------------------------------------------|-------------------------------------------------|
D|-------5----5-----5----5----4--------------------|-------5----5-----5----5----4--------------------|
A|-7-------------------------------7----5-----7----|-7-------------------------------7----5-----7----|
E|-------------------------------------------------|-------------------------------------------------|

E|-------------------------------------------------|-------------------------------------------------|
B|-------------------------------------------------|-------------------------------------------------|
G|-------------------------------------------------|-------------------------------------------------|
D|-------5----5-----5----5----4--------------------|-------5----5-----5----5----4--------------------|
A|-7-------------------------------7----5-----7----|-7-------------------------------7----5-----7----|
E|-------------------------------------------------|-------------------------------------------------|

E|-------------------------------------------------|-------------------------------------------------|
B|-------------------------------------------------|-------------------------------------------------|
G|-------------------------------------------------|-------------------------------------------------|
D|-------5----5-----5----5----4--------------------|-------5----5-----5----5----4--------------------|
A|-7-------------------------------7----5-----7----|-7-------------------------------7----5-----7----|
E|-------------------------------------------------|-------------------------------------------------|

E|-----------------------------------------------------|-------------------------------------------------|
B|-----------------------------------------------------|-------------------------------------------------|
G|-----------------------------------------------------|-------------------------------------------------|
D|-------5----5-----5----5----4---------5----4---------|-------5----5-----5----5----4--------------------|
A|-7-------------------------------7--------------7----|-7-------------------------------7----5-----7----|
E|-----------------------------------------------------|-------------------------------------------------|

E|-------------------------------------------------|-------------------------------------------------|
B|-------------------------------------------------|-------------------------------------------------|
G|-------------------------------------------------|-------------------------------------------------|
D|-------5----5-----5----5----4--------------------|-------5----5-----5----5----4--------------------|
A|-7-------------------------------7----5-----7----|-7-------------------------------7----5-----7----|
E|-------------------------------------------------|-------------------------------------------------|

E|-------------------------------------------------|-------------------------------------------------|
B|-------------------------------------------------|-------------------------------------------------|
G|-------------------------------------------------|-------------------------------------------------|
D|-------5----5-----5----5----4--------------------|-------5----5-----5----5----4--------------------|
A|-7-------------------------------7----5-----7----|-7-------------------------------7----5-----7----|
E|-------------------------------------------------|-------------------------------------------------|

E|-------------------------------------------------|-------------------------------------------------|
B|-------------------------------------------------|-------------------------------------------------|
G|-------------------------------------------------|-------------------------------------------------|
D|-------5----5-----5----5----4--------------------|-------5----5-----5----5----4--------------------|
A|-7-------------------------------7----5-----7----|-7-------------------------------7----5-----7----|
E|-------------------------------------------------|-------------------------------------------------|

E|-----------------------------------------------------|-------------------------------------------------|
B|-----------------------------------------------------|-------------------------------------------------|
G|-----------------------------------------------------|-------------------------------------------------|
D|-------5----5-----5----5----4---------5----4---------|-------5----5-----5----5----4--------------------|
A|-7-------------------------------7--------------7----|-7-------------------------------7----5-----7----|
E|-----------------------------------------------------|-------------------------------------------------|

E|---------------------------------------------|-------------------------------------------------------------------------------------------------------------------------------------------------|
B|---------------------------------------------|-------------------------------------------------------------------------------------------------------------------------------------------------|
G|---------------------------------------------|-------------------------------------------------------------------------------------------------------------------------------------------------|
D|-------5----5-----5----5----4----------------|-0--2--0--2--0--2--0--2--0--2--0--2--0--2--0--2--0--2--0--2--0--2--0--2--0--2--0--2--0--2--0--2--0--2--0--2--0--2--0--2--0--2--0--2--0--2--0--2--|
A|-7-------------------------------7----5------|-------------------------------------------------------------------------------------------------------------------------------------------------|
E|---------------------------------------------|-------------------------------------------------------------------------------------------------------------------------------------------------|

E|-------------------------------------|--------------------------------|---------|
B|-------------------------------------|--------------------------------|---------|
G|-------------------------------------|--------------------------------|---------|
D|-5-----4-----2-----------------------|-------------0-----2----2-------|-2-------|
A|-------------------5-----3-----2-----|--------------------------------|---------|
E|-------------------------------------|-5-----3------------------------|---------|

E|----------------------|---------|---------|---------|---------|---------|---------|
B|----------------------|---------|---------|---------|---------|---------|---------|
G|---------------%------|-%-------|-%-------|-%-------|-%-------|-%-------|-%-------|
D|-2-------2-----%------|-%-------|-%-------|-%-------|-%-------|-%-------|-%-------|
A|----------------------|---------|---------|---------|---------|---------|---------|
E|----------------------|---------|---------|---------|---------|---------|---------|

E|---------|---------|---------|---------|---------|---------|---------|---------|---------|
B|---------|---------|---------|---------|---------|---------|---------|---------|---------|
G|-%-------|-%-------|-%-------|-%-------|-%-------|-%-------|-%-------|-%-------|-%-------|
D|-%-------|-%-------|-%-------|-%-------|-%-------|-%-------|-%-------|-%-------|-%-------|
A|---------|---------|---------|---------|---------|---------|---------|---------|---------|
E|---------|---------|---------|---------|---------|---------|---------|---------|---------|

E|---------|---------|---------|---------|---------|---------|---------|---------|---------|
B|---------|---------|---------|---------|---------|---------|---------|---------|---------|
G|-%-------|-%-------|-%-------|-%-------|-%-------|-%-------|-%-------|-%-------|-%-------|
D|-%-------|-%-------|-%-------|-%-------|-%-------|-%-------|-%-------|-%-------|-%-------|
A|---------|---------|---------|---------|---------|---------|---------|---------|---------|
E|---------|---------|---------|---------|---------|---------|---------|---------|---------|

E|---------|---------|---------|---------|---------|---------|---------|
B|---------|---------|---------|---------|---------|---------|---------|
G|-%-------|-%-------|-%-------|-%-------|-%-------|-%-------|-%-------|
D|-%-------|-%-------|-%-------|-%-------|-%-------|-%-------|-%-------|
A|---------|---------|---------|---------|---------|---------|---------|
E|---------|---------|---------|---------|---------|---------|---------|
Iron Maiden - Transylvania (3)
Iron Maiden - Transylvania (3).gp4