Iron Maiden - Twilight Zone

Iron Maiden - Twilight Zone

Iron Maiden



Title: Twilight Zone
Album: Killers
Artist: Iron Maiden
Author: Iron Maiden

Track 1: Distortion Guitar 1
E|-----------------------------------------|-------------------------------------|-----------------------------------------|
B|-----------------------------------------|-------------------------------------|-----------------------------------------|
G|-----------------------------------------|-------------------------------------|-----------------------------------------|
D|-----------7---------5---------4---------|-5---------4---------5----4----4-----|-----------7---------5---------4---------|
A|-0----0---------0---------0---------0----|------0---------0--------------------|-0----0---------0---------0---------0----|
E|-----------------------------------------|-------------------------------------|-----------------------------------------|

E|-------------------------------------|-----------------------------------------|-------------------------------------|
B|-------------------------------------|-----------------------------------------|-------------------------------------|
G|-------------------------------------|-----------------------------------------|-------------------------------------|
D|-5---------4---------5---------------|-----------7---------5---------4---------|-5---------4---------5----4----4-----|
A|------0---------0---------3----3-----|-0----0---------0---------0---------0----|------0---------0--------------------|
E|-------------------------------------|-----------------------------------------|-------------------------------------|

E|-----------------------------------------|-------------------------------------|-----------------------------------------|
B|-----------------------------------------|-------------------------------------|-----------------------------------------|
G|-----------------------------------------|-------------------------------------|-----------------------------------------|
D|-----------7---------5---------4---------|-5---------4---------5---------------|-----------5---------4---------2---------|
A|-0----0---------0---------0---------0----|------0---------0---------3----3-----|-0----0---------0---------0---------0----|
E|-----------------------------------------|-------------------------------------|-----------------------------------------|

E|----------------------------|-----------------------------------------|----------------------------|
B|----------------------------|-----------------------------------------|----------------------------|
G|----------------5----5------|-----------------------------------------|----------------5----5------|
D|-4--------------5----5------|-----------5---------4---------2---------|-4--------------5----5------|
A|------0----0----------------|-0----0---------0---------0---------0----|------0----0----------------|
E|----------------------------|-----------------------------------------|----------------------------|

E|-------------------------------------|-----------------------------------------|-------------------------------------|
B|-------------------------------------|-----------------------------------------|-------------------------------------|
G|-------------------------------------|-----------7---------5---------4---------|-5---------4---------5----4----4-----|
D|-5----4----2-------------------------|-----------7---------7---------5---------|-5---------5---------5----5----5-----|
A|----------------3----3----5----5-----|-0----0---------0---------0---------0----|------0---------0--------------------|
E|-------------------------------------|-----------------------------------------|-------------------------------------|

E|-----------------------------------------|-------------------------------------|-------------------------------------|
B|-----------------------------------------|-------------------------------------|-------------------------------------|
G|-----------7---------5---------4---------|-5---------4---------5----4----4-----|-------------------------------------|
D|-----------7---------7---------5---------|-5---------5---------5----5----5-----|-5----4----2----5----5----7----7-----|
A|-0----0---------0---------0---------0----|------0---------0--------------------|----------------3----3----5----5-----|
E|-----------------------------------------|-------------------------------------|-------------------------------------|

E|-----------------------------------------|-------------------------------------|-----------------------------------------|
B|-----------------------------------------|-------------------------------------|-----------------------------------------|
G|-----------7---------5---------4---------|-5---------4---------5----4----4-----|-----------7---------5---------4---------|
D|-----------7---------7---------5---------|-5---------5---------5----5----5-----|-----------7---------7---------5---------|
A|-0----0---------0---------0---------0----|------0---------0--------------------|-0----0---------0---------0---------0----|
E|-----------------------------------------|-------------------------------------|-----------------------------------------|

E|-------------------------------------|-------------------------------------|-------------------------------------------|
B|-------------------------------------|-------------------------------------|-------------------------------------------|
G|-5---------4---------5----4----4-----|-------------------------------------|-------------------------------------------|
D|-5---------5---------5----5----5-----|-5----4----2----5----5----7----7-----|-------------------------------------------|
A|------0---------0--------------------|----------------3----3----5----5-----|----------------3--------------------3-----|
E|-------------------------------------|-------------------------------------|-1----1----1----1-----1----1----1----1-----|

E|-------------------------------------------|---------|-------------------------------------|
B|-------------------------------------------|---------|-------------------------------------|
G|-------------------------------------------|---------|-9----7----5----4----4----5----5-----|
D|-------------------------------------------|-2-------|-------------------------------------|
A|----------------3--------------------3-----|-0-------|-------------------------------------|
E|-1----1----1----1-----1----1----1----1-----|---------|-------------------------------------|

E|-------------------------------------------|-------------------------------------------|
B|-------------------------------------------|-------------------------------------------|
G|-------------------------------------------|-------------------------------------------|
D|-------------------------------------------|-------------------------------------------|
A|----------------3--------------------3-----|----------------3--------------------3-----|
E|-1----1----1----1-----1----1----1----1-----|-1----1----1----1-----1----1----1----1-----|

E|------------------------------------------|------------------------------------------|
B|------------------------------------------|------------------------------------------|
G|------------------------------------------|------------------------------------------|
D|------------------------------------5-----|------------------------------------5-----|
A|-0----0----3----0----0----0----0----3-----|-0----0----3----0----0----0----0----3-----|
E|------------------------------------------|------------------------------------------|

E|---------|---------|--------------------|--------------------|---------|---------|
B|---------|---------|--------------------|--------------------|---------|---------|
G|---------|---------|--------------------|--------------------|---------|---------|
D|-5-------|-5-------|-5------7----7------|-10-----9----9------|-9-------|-9-------|
A|-5-------|-5-------|-3------5----5------|-8------7----7------|-7-------|-7-------|
E|-3-------|-3-------|--------------------|--------------------|---------|---------|

E|--------------------------|--------------------------|--------------------------|
B|--------------------------|--------------------------|--------------------------|
G|-5------5-----4-----5-----|-7------7-----5-----7-----|-9------9-----7-----9-----|
D|--------------------------|--------------------------|--------------------------|
A|--------------------------|--------------------------|--------------------------|
E|--------------------------|--------------------------|--------------------------|

E|-------------------------------------|-8-------------|-7-------------|-------------------------------------|
B|-7-----------7-----8-----7-----8-----|--------10-----|--------8------|-------------------------------------|
G|-------9-----------------------------|---------------|---------------|-9-----10----7-----9-----7-----5-----|
D|-------------------------------------|---------------|---------------|-------------------------------------|
A|-------------------------------------|---------------|---------------|-------------------------------------|
E|-------------------------------------|---------------|---------------|-------------------------------------|

E|---------|--------------------|--------------------|--------------------|-------------------------------------|
B|---------|--------------------|--------------------|--------------------|-7-----------7-----8-----7-----8-----|
G|-4-------|-5------------5-----|-7------------7-----|-9------------9-----|-------9-----------------------------|
D|---------|--------5-----------|--------7-----------|--------10----------|-------------------------------------|
A|---------|--------------------|--------------------|--------------------|-------------------------------------|
E|---------|--------------------|--------------------|--------------------|-------------------------------------|

E|--------------------|--------------------|--------------------|-------------------------------------|
B|-10-----------10----|-12-----------12----|-13-----------13----|-------------------------------------|
G|--------9-----------|--------11----------|--------12----------|-2-----------------------------------|
D|--------------------|--------------------|--------------------|-------2-----0-----------------------|
A|--------------------|--------------------|--------------------|-------------------3-----2-----0-----|
E|--------------------|--------------------|--------------------|-------------------------------------|

E|-------------------------------------|-----------------------------------------|-------------------------------------|
B|-------------------------------------|-----------------------------------------|-------------------------------------|
G|-------------------------------------|-----------------------------------------|-------------------------------------|
D|-------------------------------------|-----------7---------5---------4---------|-5---------4---------5----4----4-----|
A|-------2-----------3-----2-----------|-0----0---------0---------0---------0----|------0---------0--------------------|
E|-3-----------3-----------------3-----|-----------------------------------------|-------------------------------------|

E|-----------------------------------------|-------------------------------------|-----------------------------------------|
B|-----------------------------------------|-------------------------------------|-----------------------------------------|
G|-----------------------------------------|-------------------------------------|-----------------------------------------|
D|-----------7---------5---------4---------|-5---------4---------5---------------|-----------7---------5---------4---------|
A|-0----0---------0---------0---------0----|------0---------0---------3----3-----|-0----0---------0---------0---------0----|
E|-----------------------------------------|-------------------------------------|-----------------------------------------|

E|-------------------------------------|-----------------------------------------|-------------------------------------------------------------|
B|-------------------------------------|-----------------------------------------|-------------------------------------------------------------|
G|-------------------------------------|-----------------------------------------|-7----6----4-------------------------------------------------|
D|-5---------4---------5----4----4-----|-----------7---------5---------4---------|----------------7----5----4----------------------------------|
A|------0---------0--------------------|-0----0---------0---------0---------0----|-------------------------------7----5----4----5----4----2----|
E|-------------------------------------|-----------------------------------------|-------------------------------------------------------------|

E|-----------------------------------------|----------------------------|-----------------------------------------|
B|-----------------------------------------|----------------------------|-----------------------------------------|
G|-----------------------------------------|----------------5----5------|-----------------------------------------|
D|-----------5---------4---------2---------|-4--------------5----5------|-----------5---------4---------2---------|
A|-0----0---------0---------0---------0----|------0----0----------------|-0----0---------0---------0---------0----|
E|-----------------------------------------|----------------------------|-----------------------------------------|

E|----------------------------|-------------------------------------|-----------------------------------------|
B|----------------------------|-------------------------------------|-----------------------------------------|
G|----------------5----5------|-------------------------------------|-----------7---------5---------4---------|
D|-4--------------5----5------|-5----4----2-------------------------|-----------7---------7---------5---------|
A|------0----0----------------|----------------3----3----5----5-----|-0----0---------0---------0---------0----|
E|----------------------------|-------------------------------------|-----------------------------------------|

E|-------------------------------------|-----------------------------------------|-------------------------------------|
B|-------------------------------------|-----------------------------------------|-------------------------------------|
G|-5---------4---------5----4----4-----|-----------7---------5---------4---------|-5---------4---------5----4----4-----|
D|-5---------5---------5----5----5-----|-----------7---------7---------5---------|-5---------5---------5----5----5-----|
A|------0---------0--------------------|-0----0---------0---------0---------0----|------0---------0--------------------|
E|-------------------------------------|-----------------------------------------|-------------------------------------|

E|-------------------------------------|-----------------------------------------|-------------------------------------|
B|-------------------------------------|-----------------------------------------|-------------------------------------|
G|-------------------------------------|-----------7---------5---------4---------|-5---------4---------5----4----4-----|
D|-5----4----2----5----5----7----7-----|-----------7---------7---------5---------|-5---------5---------5----5----5-----|
A|----------------3----3----5----5-----|-0----0---------0---------0---------0----|------0---------0--------------------|
E|-------------------------------------|-----------------------------------------|-------------------------------------|

E|-----------------------------------------|-------------------------------------|-------------------------------------|
B|-----------------------------------------|-------------------------------------|-------------------------------------|
G|-----------7---------5---------4---------|-5---------4---------5----4----4-----|-------------------------------------|
D|-----------7---------7---------5---------|-5---------5---------5----5----5-----|-5----4----2----5----5----7----7-----|
A|-0----0---------0---------0---------0----|------0---------0--------------------|----------------3----3----5----5-----|
E|-----------------------------------------|-------------------------------------|-------------------------------------|

E|-------------------------------------------|-------------------------------------------|
B|-------------------------------------------|-------------------------------------------|
G|-------------------------------------------|-------------------------------------------|
D|-------------------------------------------|-------------------------------------------|
A|----------------3--------------------3-----|----------------3--------------------3-----|
E|-1----1----1----1-----1----1----1----1-----|-1----1----1----1-----1----1----1----1-----|

E|---------|-------------------------------------|-------------------------------------------|
B|---------|-------------------------------------|-------------------------------------------|
G|---------|-9----7----5----4----4----5----5-----|-------------------------------------------|
D|-2-------|-------------------------------------|-------------------------------------------|
A|-0-------|-------------------------------------|----------------3--------------------3-----|
E|---------|-------------------------------------|-1----1----1----1-----1----1----1----1-----|

E|-------------------------------------------|------------------------------------------|
B|-------------------------------------------|------------------------------------------|
G|-------------------------------------------|------------------------------------------|
D|-------------------------------------------|------------------------------------5-----|
A|----------------3--------------------3-----|-0----0----3----0----0----0----0----3-----|
E|-1----1----1----1-----1----1----1----1-----|------------------------------------------|

E|------------------------------------------|---------|---------|--------------------|
B|------------------------------------------|---------|---------|--------------------|
G|------------------------------------------|---------|---------|--------------------|
D|------------------------------------5-----|-5-------|-5-------|-5------7----7------|
A|-0----0----3----0----0----0----0----3-----|-5-------|-5-------|-3------5----5------|
E|------------------------------------------|-3-------|-3-------|--------------------|

E|--------------------|---------|---------|--------------------------|--------------------------|
B|--------------------|---------|---------|--------------------------|--------------------------|
G|--------------------|---------|---------|-5------5-----4-----5-----|-7------7-----5-----7-----|
D|-10-----9----9------|-9-------|-9-------|--------------------------|--------------------------|
A|-8------7----7------|-7-------|-7-------|--------------------------|--------------------------|
E|--------------------|---------|---------|--------------------------|--------------------------|

E|--------------------------|-------------------------------------|-8-------------|
B|--------------------------|-7-----------7-----8-----7-----8-----|--------10-----|
G|-9------9-----7-----9-----|-------9-----------------------------|---------------|
D|--------------------------|-------------------------------------|---------------|
A|--------------------------|-------------------------------------|---------------|
E|--------------------------|-------------------------------------|---------------|

E|-7-------------|-------------------------------------|---------|--------------------|
B|--------8------|-------------------------------------|---------|--------------------|
G|---------------|-9-----10----7-----9-----7-----5-----|-4-------|-5------------5-----|
D|---------------|-------------------------------------|---------|--------5-----------|
A|---------------|-------------------------------------|---------|--------------------|
E|---------------|-------------------------------------|---------|--------------------|

E|--------------------|--------------------|-------------------------------------|--------------------|
B|--------------------|--------------------|-7-----------7-----8-----7-----8-----|-10-----------10----|
G|-7------------7-----|-9------------9-----|-------9-----------------------------|--------9-----------|
D|--------7-----------|--------10----------|-------------------------------------|--------------------|
A|--------------------|--------------------|-------------------------------------|--------------------|
E|--------------------|--------------------|-------------------------------------|--------------------|

E|--------------------|--------------------|-------------------------------------|-------------------------------------|
B|-12-----------12----|-13-----------13----|-------------------------------------|-------------------------------------|
G|--------11----------|--------12----------|-2-----------------------------------|-------------------------------------|
D|--------------------|--------------------|-------2-----0-----------------------|-------------------------------------|
A|--------------------|--------------------|-------------------3-----2-----0-----|-------2-----------3-----2-----------|
E|--------------------|--------------------|-------------------------------------|-3-----------3-----------------3-----|

E|-------------------------|
B|-------------------------|
G|-------%-----%-----%-----|
D|-2-----%-----%-----%-----|
A|-0-----------------------|
E|-------------------------|
Iron Maiden - Twilight Zone
Iron Maiden - Twilight Zone.gp3