Iron Maiden - Wasted Years

Iron Maiden - Wasted Years

Iron Maiden



Title: Wasted Years
Album: Somewhere In Time
Artist: Iron Maiden
Author: Iron Maiden

Track 1: Dave & Adrian (Rhythm Guitar)
E|---------|---------|---------|---------|---------|---------|---------|---------|-0-------|
B|---------|---------|---------|---------|---------|---------|---------|---------|-0-------|
G|-%-------|-%-------|-%-------|-%-------|-%-------|-%-------|-%-------|-%-------|-4-------|
D|-%-------|-%-------|-%-------|-%-------|-%-------|-%-------|-%-------|-%-------|-2-------|
A|---------|---------|---------|---------|---------|---------|---------|---------|-2-------|
E|---------|---------|---------|---------|---------|---------|---------|---------|-0-------|

E|-0-------|-0-------|-0-------0-----|-0-------|-0-------|-0------0-----------|---------|
B|-0-------|-0-------|-0-------0-----|-0-------|-0-------|-0------0------3----|-3-------|
G|-4-------|-4-------|-4-------4-----|-4-------|-4-------|-4------4------2----|-2-------|
D|-2-------|-2-------|-2-------2-----|-2-------|-2-------|-2------2------0----|-0-------|
A|-2-------|-2-------|-2-------2-----|-2-------|-2-------|-2------2-----------|---------|
E|-0-------|-0-------|-0-------0-----|-0-------|-0-------|-0------0-----------|---------|

E|---------|-----------------------------------------|--------------------------3----3----3----|
B|-3-------|-5--------------5--------------5---------|------5--------------5----3----3----3----|
G|-2-------|-4--------------4--------------4---------|------4--------------4----0----0----0----|
D|-0-------|-2----2----2----2----2----2----2----2----|-2----2----2----2----2----0----0----0----|
A|---------|-----------------------------------------|-----------------------------------------|
E|---------|-----------------------------------------|-----------------------------------------|

E|-----------------------------------------|-----------------------------------------|
B|-3--------------3--------------3---------|------3--------------3----3----3----3----|
G|-2--------------2--------------2---------|------2--------------2----2----2----2----|
D|-0----0----0----0----0----0----0----0----|-0----0----0----0----0----0----0----0----|
A|-----------------------------------------|-----------------------------------------|
E|-----------------------------------------|-----------------------------------------|

E|-----------------------------------------|--------------------------3----3----3----|
B|-5--------------5--------------5---------|------5--------------5----3----3----3----|
G|-4--------------4--------------4---------|------4--------------4----0----0----0----|
D|-2----2----2----2----2----2----2----2----|-2----2----2----2----2----0----0----0----|
A|-----------------------------------------|-----------------------------------------|
E|-----------------------------------------|-----------------------------------------|

E|-----------------------------------------|-----------------------------------------|
B|-7--------------7--------------7---------|------7----8----8----8----8----8----8----|
G|-6--------------6--------------6---------|------6----7----7----7----7----7----7----|
D|-4----4----4----4----4----4----4----4----|-4----4----5----5----5----5----5----5----|
A|-----------------------------------------|-----------------------------------------|
E|-----------------------------------------|-----------------------------------------|

E|-------------------------------0-----|-0------0-------------------|-----------------------------------------|
B|-------------------------------0-----|-0------0----3----3----3----|-5--------------5--------------5---------|
G|-5--------------5--------------0-----|-0------0----2----2----2----|-4--------------4--------------4---------|
D|-5--------------5--------------2-----|-2------2----0----0----0----|-2----2----2----2----2----2----2----2----|
A|-3----3----3----3----3----3----3-----|-3------3-------------------|-----------------------------------------|
E|-------------------------------------|----------------------------|-----------------------------------------|

E|--------------------------3----3----3----|-----------------------------------------|
B|------5--------------5----3----3----3----|-3--------------3--------------3---------|
G|------4--------------4----0----0----0----|-2--------------2--------------2---------|
D|-2----2----2----2----2----0----0----0----|-0----0----0----0----0----0----0----0----|
A|-----------------------------------------|-----------------------------------------|
E|-----------------------------------------|-----------------------------------------|

E|-----------------------------------------|-------------------------------3-----|-3------3-----------|
B|------3--------------3----3----3----3----|-------------------------------3-----|-3------3-----3-----|
G|------2--------------2----2----2----2----|-5--------------5--------------0-----|-0------0-----2-----|
D|-0----0----0----0----0----0----0----0----|-5--------------5--------------2-----|-2------2-----0-----|
A|-----------------------------------------|-3----3----3----3----3----3----3-----|-3------3-----------|
E|-----------------------------------------|-------------------------------------|--------------------|

E|---------|---------------|---------|---------------|---------|---------|-3-------|
B|---------|---------------|---------|---------------|---------|---------|-3-------|
G|---------|-5-------------|-7-------|-5-------------|---------|-7-------|-0-------|
D|-5-------|-5------7------|-7-------|-5------7------|-2-------|-7-------|-2-------|
A|-5-------|-3------7------|-5-------|-3------7------|-2-------|-5-------|-3-------|
E|-3-------|--------5------|---------|--------5------|-0-------|---------|---------|

E|-3-------|---------|---------------|---------|---------------|---------|---------|
B|-3-------|---------|---------------|---------|---------------|---------|---------|
G|-0-------|---------|-5-------------|-7-------|-5-------------|---------|-7-------|
D|-2-------|-5-------|-5------7------|-7-------|-5------7------|-2-------|-7-------|
A|-3-------|-5-------|-3------7------|-5-------|-3------7------|-2-------|-5-------|
E|---------|-3-------|--------5------|---------|--------5------|-0-------|---------|

E|-3-------|-3-------------|-----------------------------------------|--------------------------3----3----3----|
B|-3-------|-3-------3-----|-5--------------5--------------5---------|------5--------------5----3----3----3----|
G|-0-------|-0-------2-----|-4--------------4--------------4---------|------4--------------4----0----0----0----|
D|-2-------|-2-------0-----|-2----2----2----2----2----2----2----2----|-2----2----2----2----2----0----0----0----|
A|-3-------|-3-------------|-----------------------------------------|-----------------------------------------|
E|---------|---------------|-----------------------------------------|-----------------------------------------|

E|-----------------------------------------|-----------------------------------------|
B|-3--------------3--------------3---------|------3--------------3----3----3----3----|
G|-2--------------2--------------2---------|------2--------------2----2----2----2----|
D|-0----0----0----0----0----0----0----0----|-0----0----0----0----0----0----0----0----|
A|-----------------------------------------|-----------------------------------------|
E|-----------------------------------------|-----------------------------------------|

E|-----------------------------------------|--------------------------3----3----3----|
B|-5--------------5--------------5---------|------5--------------5----3----3----3----|
G|-4--------------4--------------4---------|------4--------------4----0----0----0----|
D|-2----2----2----2----2----2----2----2----|-2----2----2----2----2----0----0----0----|
A|-----------------------------------------|-----------------------------------------|
E|-----------------------------------------|-----------------------------------------|

E|-----------------------------------------|-----------------------------------------|
B|-7--------------7--------------7---------|------7----8----8----8----8----8----8----|
G|-6--------------6--------------6---------|------6----7----7----7----7----7----7----|
D|-4----4----4----4----4----4----4----4----|-4----4----5----5----5----5----5----5----|
A|-----------------------------------------|-----------------------------------------|
E|-----------------------------------------|-----------------------------------------|

E|-------------------------------0-----|-0------0-------------------|-----------------------------------------|
B|-------------------------------0-----|-0------0----3----3----3----|-5--------------5--------------5---------|
G|-5--------------5--------------0-----|-0------0----2----2----2----|-4--------------4--------------4---------|
D|-5--------------5--------------2-----|-2------2----0----0----0----|-2----2----2----2----2----2----2----2----|
A|-3----3----3----3----3----3----3-----|-3------3-------------------|-----------------------------------------|
E|-------------------------------------|----------------------------|-----------------------------------------|

E|--------------------------3----3----3----|-----------------------------------------|
B|------5--------------5----3----3----3----|-3--------------3--------------3---------|
G|------4--------------4----0----0----0----|-2--------------2--------------2---------|
D|-2----2----2----2----2----0----0----0----|-0----0----0----0----0----0----0----0----|
A|-----------------------------------------|-----------------------------------------|
E|-----------------------------------------|-----------------------------------------|

E|-----------------------------------------|-------------------------------3-----|-3------3-----------|
B|------3--------------3----3----3----3----|-------------------------------3-----|-3------3-----3-----|
G|------2--------------2----2----2----2----|-5--------------5--------------0-----|-0------0-----2-----|
D|-0----0----0----0----0----0----0----0----|-5--------------5--------------2-----|-2------2-----0-----|
A|-----------------------------------------|-3----3----3----3----3----3----3-----|-3------3-----------|
E|-----------------------------------------|-------------------------------------|--------------------|

E|---------|---------------|---------|---------------|---------|---------|-3-------|
B|---------|---------------|---------|---------------|---------|---------|-3-------|
G|---------|-5-------------|-7-------|-5-------------|---------|-7-------|-0-------|
D|-5-------|-5------7------|-7-------|-5------7------|-2-------|-7-------|-2-------|
A|-5-------|-3------7------|-5-------|-3------7------|-2-------|-5-------|-3-------|
E|-3-------|--------5------|---------|--------5------|-0-------|---------|---------|

E|-3-------|---------|---------------|---------|---------------|---------|---------|
B|-3-------|---------|---------------|---------|---------------|---------|---------|
G|-0-------|---------|-5-------------|-7-------|-5-------------|---------|-7-------|
D|-2-------|-5-------|-5------7------|-7-------|-5------7------|-2-------|-7-------|
A|-3-------|-5-------|-3------7------|-5-------|-3------7------|-2-------|-5-------|
E|---------|-3-------|--------5------|---------|--------5------|-0-------|---------|

E|-3-------|-3-------|-0-------|-0-------|-0-------|-0-------0-----|-0-------|-0-------|
B|-3-------|-3-------|-0-------|-0-------|-0-------|-0-------0-----|-0-------|-0-------|
G|-0-------|-0-------|-4-------|-4-------|-4-------|-4-------4-----|-4-------|-4-------|
D|-2-------|-2-------|-2-------|-2-------|-2-------|-2-------2-----|-2-------|-2-------|
A|-3-------|-3-------|-2-------|-2-------|-2-------|-2-------2-----|-2-------|-2-------|
E|---------|---------|-0-------|-0-------|-0-------|-0-------0-----|-0-------|-0-------|

E|-0-------|-0-------|---------|---------|----------------------------|-------------------------------------|
B|-0-------|-0-------|-3-------|-3-------|----------------------------|-------------------------------3-----|
G|-4-------|-4-------|-2-------|-2-------|-5--------------------------|-------------------------------2-----|
D|-2-------|-2-------|-0-------|-0-------|-5------5----5----5----5----|-5----5----5----5----5----5----0-----|
A|-2-------|-2-------|---------|---------|-3------3----3----3----3----|-3----3----3----3----3----3----------|
E|-0-------|-0-------|---------|---------|----------------------------|-------------------------------------|

E|-----------------------------------------|-----------------------------------------|
B|-5--------------5--------------5---------|------5--------------5---------5---------|
G|-4--------------4--------------4---------|------4--------------4---------4---------|
D|-2----2----2----2----2----2----2----2----|-2----2----2----2----2----2----2----2----|
A|-----------------------------------------|-----------------------------------------|
E|-----------------------------------------|-----------------------------------------|

E|-----------------------------------------|-----------------------------------------|
B|-5--------------5--------------5---------|------5--------------5---------5---------|
G|-4--------------4--------------4---------|------4--------------4---------4---------|
D|-2----2----2----2----2----2----2----2----|-2----2----2----2----2----2----2----2----|
A|-----------------------------------------|-----------------------------------------|
E|-----------------------------------------|-----------------------------------------|

E|-----------------------------------------|-----------------------------------------|
B|-3--------------3--------------3---------|------3--------------3---------3---------|
G|-2--------------2--------------2---------|------2--------------2---------2---------|
D|-0----0----0----0----0----0----0----0----|-0----0----0----0----0----0----0----0----|
A|-----------------------------------------|-----------------------------------------|
E|-----------------------------------------|-----------------------------------------|

E|-----------------------------------------|-------------------------------------|-----------------------------------------|
B|-----------------------------------------|-------------------------------3-----|-5--------------5--------------5---------|
G|-5--------------5--------------5---------|------5--------------5---------2-----|-4--------------4--------------4---------|
D|-5--------------5--------------5---------|------5--------------5---------0-----|-2----2----2----2----2----2----2----2----|
A|-3----3----3----3----3----3----3----3----|-3----3----3----3----3----3----------|-----------------------------------------|
E|-----------------------------------------|-------------------------------------|-----------------------------------------|

E|-----------------------------------------|-----------------------------------------|
B|------5--------------5---------5---------|-5--------------5--------------5---------|
G|------4--------------4---------4---------|-4--------------4--------------4---------|
D|-2----2----2----2----2----2----2----2----|-2----2----2----2----2----2----2----2----|
A|-----------------------------------------|-----------------------------------------|
E|-----------------------------------------|-----------------------------------------|

E|-----------------------------------------|-----------------------------------------|
B|------5--------------5---------5---------|-3--------------3--------------3---------|
G|------4--------------4---------4---------|-2--------------2--------------2---------|
D|-2----2----2----2----2----2----2----2----|-0----0----0----0----0----0----0----0----|
A|-----------------------------------------|-----------------------------------------|
E|-----------------------------------------|-----------------------------------------|

E|-----------------------------------------|-----------------------------------------|
B|------3--------------3---------3---------|-----------------------------------------|
G|------2--------------2---------2---------|-5--------------5--------------5---------|
D|-0----0----0----0----0----0----0----0----|-5--------------5--------------5---------|
A|-----------------------------------------|-3----3----3----3----3----3----3----3----|
E|-----------------------------------------|-----------------------------------------|

E|-------------------------------------|-----------------------------------------|-----------------------------------------|
B|-------------------------------3-----|-5--------------5--------------5---------|------5--------------5---------5---------|
G|------5--------------5---------2-----|-4--------------4--------------4---------|------4--------------4---------4---------|
D|------5--------------5---------0-----|-2----2----2----2----2----2----2----2----|-2----2----2----2----2----2----2----2----|
A|-3----3----3----3----3----3----------|-----------------------------------------|-----------------------------------------|
E|-------------------------------------|-----------------------------------------|-----------------------------------------|

E|-----------------------------------------|-----------------------------------------|
B|-5--------------5--------------5---------|------5--------------5---------5---------|
G|-4--------------4--------------4---------|------4--------------4---------4---------|
D|-2----2----2----2----2----2----2----2----|-2----2----2----2----2----2----2----2----|
A|-----------------------------------------|-----------------------------------------|
E|-----------------------------------------|-----------------------------------------|

E|-----------------------------------------|-----------------------------------------|
B|-3--------------3--------------3---------|------3--------------3---------3---------|
G|-2--------------2--------------2---------|------2--------------2---------2---------|
D|-0----0----0----0----0----0----0----0----|-0----0----0----0----0----0----0----0----|
A|-----------------------------------------|-----------------------------------------|
E|-----------------------------------------|-----------------------------------------|

E|-----------------------------------------|-------------------------------------|-----------------------------------------|
B|-----------------------------------------|-------------------------------3-----|-5--------------5--------------5---------|
G|-5--------------5--------------5---------|------5--------------5---------2-----|-4--------------4--------------4---------|
D|-5--------------5--------------5---------|------5--------------5---------0-----|-2----2----2----2----2----2----2----2----|
A|-3----3----3----3----3----3----3----3----|-3----3----3----3----3----3----------|-----------------------------------------|
E|-----------------------------------------|-------------------------------------|-----------------------------------------|

E|-----------------------------------------|-----------------------------------------|
B|------5--------------5---------5---------|-5--------------5--------------5---------|
G|------4--------------4---------4---------|-4--------------4--------------4---------|
D|-2----2----2----2----2----2----2----2----|-2----2----2----2----2----2----2----2----|
A|-----------------------------------------|-----------------------------------------|
E|-----------------------------------------|-----------------------------------------|

E|-----------------------------------------|-----------------------------------------|
B|------5--------------5---------5---------|-3--------------3--------------3---------|
G|------4--------------4---------4---------|-2--------------2--------------2---------|
D|-2----2----2----2----2----2----2----2----|-0----0----0----0----0----0----0----0----|
A|-----------------------------------------|-----------------------------------------|
E|-----------------------------------------|-----------------------------------------|

E|-----------------------------------------|-----------------------------------------|
B|------3--------------3---------3---------|-----------------------------------------|
G|------2--------------2---------2---------|-5--------------5--------------5---------|
D|-0----0----0----0----0----0----0----0----|-5--------------5--------------5---------|
A|-----------------------------------------|-3----3----3----3----3----3----3----3----|
E|-----------------------------------------|-----------------------------------------|

E|-------------------------------------|---------|---------------|---------|---------------|
B|-------------------------------3-----|---------|---------------|---------|---------------|
G|------5--------------5---------2-----|---------|-5-------------|-7-------|-5-------------|
D|------5--------------5---------0-----|-5-------|-5------7------|-7-------|-5------7------|
A|-3----3----3----3----3----3----------|-5-------|-3------7------|-5-------|-3------7------|
E|-------------------------------------|-3-------|--------5------|---------|--------5------|

E|---------|---------|-3-------|-3-------|---------|---------------|---------|---------------|
B|---------|---------|-3-------|-3-------|---------|---------------|---------|---------------|
G|---------|-7-------|-0-------|-0-------|---------|-5-------------|-7-------|-5-------------|
D|-2-------|-7-------|-2-------|-2-------|-5-------|-5------7------|-7-------|-5------7------|
A|-2-------|-5-------|-3-------|-3-------|-5-------|-3------7------|-5-------|-3------7------|
E|-0-------|---------|---------|---------|-3-------|--------5------|---------|--------5------|

E|---------|---------|-3-------|-3-------------|---------|---------------|---------|
B|---------|---------|-3-------|-3-------3-----|---------|---------------|---------|
G|---------|-7-------|-0-------|-0-------2-----|---------|-5-------------|-7-------|
D|-2-------|-7-------|-2-------|-2-------0-----|-5-------|-5------7------|-7-------|
A|-2-------|-5-------|-3-------|-3-------------|-5-------|-3------7------|-5-------|
E|-0-------|---------|---------|---------------|-3-------|--------5------|---------|

E|---------------|---------|---------|-3-------|-3-------|---------|---------------|
B|---------------|---------|---------|-3-------|-3-------|---------|---------------|
G|-5-------------|---------|-7-------|-0-------|-0-------|---------|-5-------------|
D|-5------7------|-2-------|-7-------|-2-------|-2-------|-5-------|-5------7------|
A|-3------7------|-2-------|-5-------|-3-------|-3-------|-5-------|-3------7------|
E|--------5------|-0-------|---------|---------|---------|-3-------|--------5------|

E|---------|---------------|---------|---------|-3-------|-3-------------|-0-------|
B|---------|---------------|---------|---------|-3-------|-3-------3-----|-0-------|
G|-7-------|-5-------------|---------|-7-------|-0-------|-0-------2-----|-4-------|
D|-7-------|-5------7------|-2-------|-7-------|-2-------|-2-------0-----|-2-------|
A|-5-------|-3------7------|-2-------|-5-------|-3-------|-3-------------|-2-------|
E|---------|--------5------|-0-------|---------|---------|---------------|-0-------|

E|-0-------|-0-------|-0-------0-----|-0-------|-0-------|-0-------|-0-------|---------|
B|-0-------|-0-------|-0-------0-----|-0-------|-0-------|-0-------|-0-------|-3-------|
G|-4-------|-4-------|-4-------4-----|-4-------|-4-------|-4-------|-4-------|-2-------|
D|-2-------|-2-------|-2-------2-----|-2-------|-2-------|-2-------|-2-------|-0-------|
A|-2-------|-2-------|-2-------2-----|-2-------|-2-------|-2-------|-2-------|---------|
E|-0-------|-0-------|-0-------0-----|-0-------|-0-------|-0-------|-0-------|---------|

E|---------|---------------------|-----------------------------|---------|---------|
B|-3-------|---------------------|-----------------------------|---------|---------|
G|-2-------|-5------4------2-----|-2---------------------------|---------|---------|
D|-0-------|-5------4------2-----|-2----5------7----5----2-----|-2-------|-2-------|
A|---------|-3------2------0-----|-0----5------7----5----2-----|-2-------|-2-------|
E|---------|---------------------|------3------5----3----0-----|-0-------|-0-------|

E|---------|
B|---------|
G|---------|
D|-2-------|
A|-2-------|
E|-0-------|
Iron Maiden - Wasted Years
Iron Maiden - Wasted Years.gp3