Iron Maiden - Wasted Years (2)

Iron Maiden - Wasted Years (2)

Iron Maiden



Title: Wasted Years (2)
Album: 
Artist: 
Author: Iron Maiden

Track 1: Rythmic Guitar
E|---------|---------|---------|---------|-0-------|-0-------|-0-------|-0-------0-----|
B|---------|---------|---------|---------|-0-------|-0-------|-0-------|-0-------0-----|
G|-%-------|-%-------|-%-------|-%-------|-4-------|-4-------|-4-------|-4-------4-----|
D|-%-------|-%-------|-%-------|-%-------|-2-------|-2-------|-2-------|-2-------2-----|
A|---------|---------|---------|---------|-2-------|-2-------|-2-------|-2-------2-----|
E|---------|---------|---------|---------|-0-------|-0-------|-0-------|-0-------0-----|

E|-0-------|-0-------|-0------0-----------|---------|---------|-----------------------------------------|
B|-0-------|-0-------|-0------0------3----|-3-------|-3-------|-5--------------5--------------5---------|
G|-4-------|-4-------|-4------4------2----|-2-------|-2-------|-4--------------4--------------4---------|
D|-2-------|-2-------|-2------2------0----|-0-------|-0-------|-2----2----2----2----2----2----2----2----|
A|-2-------|-2-------|-2------2-----------|---------|---------|-----------------------------------------|
E|-0-------|-0-------|-0------0-----------|---------|---------|-----------------------------------------|

E|--------------------------3----3----3----|-----------------------------------------|
B|------5--------------5----3----3----3----|-3--------------3--------------3---------|
G|------4--------------4----0----0----0----|-2--------------2--------------2---------|
D|-2----2----2----2----2----0----0----0----|-0----0----0----0----0----0----0----0----|
A|-----------------------------------------|-----------------------------------------|
E|-----------------------------------------|-----------------------------------------|

E|-----------------------------------------|-----------------------------------------|
B|------3--------------3----3----3----3----|-5--------------5--------------5---------|
G|------2--------------2----2----2----2----|-4--------------4--------------4---------|
D|-0----0----0----0----0----0----0----0----|-2----2----2----2----2----2----2----2----|
A|-----------------------------------------|-----------------------------------------|
E|-----------------------------------------|-----------------------------------------|

E|--------------------------3----3----3----|-----------------------------------------|
B|------5--------------5----3----3----3----|-7--------------7--------------7---------|
G|------4--------------4----0----0----0----|-6--------------6--------------6---------|
D|-2----2----2----2----2----0----0----0----|-4----4----4----4----4----4----4----4----|
A|-----------------------------------------|-----------------------------------------|
E|-----------------------------------------|-----------------------------------------|

E|-----------------------------------------|-------------------------------0-----|-0------0-------------------|
B|------7----8----8----8----8----8----8----|-------------------------------0-----|-0------0----3----3----3----|
G|------6----7----7----7----7----7----7----|-5--------------5--------------0-----|-0------0----2----2----2----|
D|-4----4----5----5----5----5----5----5----|-5--------------5--------------2-----|-2------2----0----0----0----|
A|-----------------------------------------|-3----3----3----3----3----3----3-----|-3------3-------------------|
E|-----------------------------------------|-------------------------------------|----------------------------|

E|-----------------------------------------|--------------------------3----3----3----|
B|-5--------------5--------------5---------|------5--------------5----3----3----3----|
G|-4--------------4--------------4---------|------4--------------4----0----0----0----|
D|-2----2----2----2----2----2----2----2----|-2----2----2----2----2----0----0----0----|
A|-----------------------------------------|-----------------------------------------|
E|-----------------------------------------|-----------------------------------------|

E|-----------------------------------------|-----------------------------------------|
B|-3--------------3--------------3---------|------3--------------3----3----3----3----|
G|-2--------------2--------------2---------|------2--------------2----2----2----2----|
D|-0----0----0----0----0----0----0----0----|-0----0----0----0----0----0----0----0----|
A|-----------------------------------------|-----------------------------------------|
E|-----------------------------------------|-----------------------------------------|

E|-------------------------------3-----|-3------3-----------|---------|---------------|
B|-------------------------------3-----|-3------3-----3-----|---------|---------------|
G|-5--------------5--------------0-----|-0------0-----2-----|---------|-5-------------|
D|-5--------------5--------------2-----|-2------2-----0-----|-5-------|-5------7------|
A|-3----3----3----3----3----3----3-----|-3------3-----------|-5-------|-3------7------|
E|-------------------------------------|--------------------|-3-------|--------5------|

E|---------|---------------|---------|---------|-3-------|-3-------|---------|---------------|
B|---------|---------------|---------|---------|-3-------|-3-------|---------|---------------|
G|-7-------|-5-------------|---------|-7-------|-0-------|-0-------|---------|-5-------------|
D|-7-------|-5------7------|-2-------|-7-------|-2-------|-2-------|-5-------|-5------7------|
A|-5-------|-3------7------|-2-------|-5-------|-3-------|-3-------|-5-------|-3------7------|
E|---------|--------5------|-0-------|---------|---------|---------|-3-------|--------5------|

E|---------|---------------|---------|---------|-3-------|-3-------------|-----------------------------------------|
B|---------|---------------|---------|---------|-3-------|-3-------3-----|-5--------------5--------------5---------|
G|-7-------|-5-------------|---------|-7-------|-0-------|-0-------2-----|-4--------------4--------------4---------|
D|-7-------|-5------7------|-2-------|-7-------|-2-------|-2-------0-----|-2----2----2----2----2----2----2----2----|
A|-5-------|-3------7------|-2-------|-5-------|-3-------|-3-------------|-----------------------------------------|
E|---------|--------5------|-0-------|---------|---------|---------------|-----------------------------------------|

E|--------------------------3----3----3----|-----------------------------------------|
B|------5--------------5----3----3----3----|-3--------------3--------------3---------|
G|------4--------------4----0----0----0----|-2--------------2--------------2---------|
D|-2----2----2----2----2----0----0----0----|-0----0----0----0----0----0----0----0----|
A|-----------------------------------------|-----------------------------------------|
E|-----------------------------------------|-----------------------------------------|

E|-----------------------------------------|-----------------------------------------|
B|------3--------------3----3----3----3----|-5--------------5--------------5---------|
G|------2--------------2----2----2----2----|-4--------------4--------------4---------|
D|-0----0----0----0----0----0----0----0----|-2----2----2----2----2----2----2----2----|
A|-----------------------------------------|-----------------------------------------|
E|-----------------------------------------|-----------------------------------------|

E|--------------------------3----3----3----|-----------------------------------------|
B|------5--------------5----3----3----3----|-7--------------7--------------7---------|
G|------4--------------4----0----0----0----|-6--------------6--------------6---------|
D|-2----2----2----2----2----0----0----0----|-4----4----4----4----4----4----4----4----|
A|-----------------------------------------|-----------------------------------------|
E|-----------------------------------------|-----------------------------------------|

E|-----------------------------------------|-------------------------------0-----|-0------0-------------------|
B|------7----8----8----8----8----8----8----|-------------------------------0-----|-0------0----3----3----3----|
G|------6----7----7----7----7----7----7----|-5--------------5--------------0-----|-0------0----2----2----2----|
D|-4----4----5----5----5----5----5----5----|-5--------------5--------------2-----|-2------2----0----0----0----|
A|-----------------------------------------|-3----3----3----3----3----3----3-----|-3------3-------------------|
E|-----------------------------------------|-------------------------------------|----------------------------|

E|-----------------------------------------|--------------------------3----3----3----|
B|-5--------------5--------------5---------|------5--------------5----3----3----3----|
G|-4--------------4--------------4---------|------4--------------4----0----0----0----|
D|-2----2----2----2----2----2----2----2----|-2----2----2----2----2----0----0----0----|
A|-----------------------------------------|-----------------------------------------|
E|-----------------------------------------|-----------------------------------------|

E|-----------------------------------------|-----------------------------------------|
B|-3--------------3--------------3---------|------3--------------3----3----3----3----|
G|-2--------------2--------------2---------|------2--------------2----2----2----2----|
D|-0----0----0----0----0----0----0----0----|-0----0----0----0----0----0----0----0----|
A|-----------------------------------------|-----------------------------------------|
E|-----------------------------------------|-----------------------------------------|

E|-------------------------------3-----|-3------3-----------|---------|---------------|
B|-------------------------------3-----|-3------3-----3-----|---------|---------------|
G|-5--------------5--------------0-----|-0------0-----2-----|---------|-5-------------|
D|-5--------------5--------------2-----|-2------2-----0-----|-5-------|-5------7------|
A|-3----3----3----3----3----3----3-----|-3------3-----------|-5-------|-3------7------|
E|-------------------------------------|--------------------|-3-------|--------5------|

E|---------|---------------|---------|---------|-3-------|-3-------|---------|---------------|
B|---------|---------------|---------|---------|-3-------|-3-------|---------|---------------|
G|-7-------|-5-------------|---------|-7-------|-0-------|-0-------|---------|-5-------------|
D|-7-------|-5------7------|-2-------|-7-------|-2-------|-2-------|-5-------|-5------7------|
A|-5-------|-3------7------|-2-------|-5-------|-3-------|-3-------|-5-------|-3------7------|
E|---------|--------5------|-0-------|---------|---------|---------|-3-------|--------5------|

E|---------|---------------|---------|---------|-3-------|-3-------|-0-------|-0-------|
B|---------|---------------|---------|---------|-3-------|-3-------|-0-------|-0-------|
G|-7-------|-5-------------|---------|-7-------|-0-------|-0-------|-4-------|-4-------|
D|-7-------|-5------7------|-2-------|-7-------|-2-------|-2-------|-2-------|-2-------|
A|-5-------|-3------7------|-2-------|-5-------|-3-------|-3-------|-2-------|-2-------|
E|---------|--------5------|-0-------|---------|---------|---------|-0-------|-0-------|

E|-0-------|-0-------0-----|-0-------|-0-------|-0-------|-0-------|---------|---------|
B|-0-------|-0-------0-----|-0-------|-0-------|-0-------|-0-------|-3-------|-3-------|
G|-4-------|-4-------4-----|-4-------|-4-------|-4-------|-4-------|-2-------|-2-------|
D|-2-------|-2-------2-----|-2-------|-2-------|-2-------|-2-------|-0-------|-0-------|
A|-2-------|-2-------2-----|-2-------|-2-------|-2-------|-2-------|---------|---------|
E|-0-------|-0-------0-----|-0-------|-0-------|-0-------|-0-------|---------|---------|

E|----------------------------|-------------------------------------|-----------------------------------------|
B|----------------------------|-------------------------------3-----|-5--------------5--------------5---------|
G|-5--------------------------|-------------------------------2-----|-4--------------4--------------4---------|
D|-5------5----5----5----5----|-5----5----5----5----5----5----0-----|-2----2----2----2----2----2----2----2----|
A|-3------3----3----3----3----|-3----3----3----3----3----3----------|-----------------------------------------|
E|----------------------------|-------------------------------------|-----------------------------------------|

E|-----------------------------------------|-----------------------------------------|
B|------5--------------5---------5---------|-5--------------5--------------5---------|
G|------4--------------4---------4---------|-4--------------4--------------4---------|
D|-2----2----2----2----2----2----2----2----|-2----2----2----2----2----2----2----2----|
A|-----------------------------------------|-----------------------------------------|
E|-----------------------------------------|-----------------------------------------|

E|-----------------------------------------|-----------------------------------------|
B|------5--------------5---------5---------|-3--------------3--------------3---------|
G|------4--------------4---------4---------|-2--------------2--------------2---------|
D|-2----2----2----2----2----2----2----2----|-0----0----0----0----0----0----0----0----|
A|-----------------------------------------|-----------------------------------------|
E|-----------------------------------------|-----------------------------------------|

E|-----------------------------------------|-----------------------------------------|
B|------3--------------3---------3---------|-----------------------------------------|
G|------2--------------2---------2---------|-5--------------5--------------5---------|
D|-0----0----0----0----0----0----0----0----|-5--------------5--------------5---------|
A|-----------------------------------------|-3----3----3----3----3----3----3----3----|
E|-----------------------------------------|-----------------------------------------|

E|-------------------------------------|-----------------------------------------|-----------------------------------------|
B|-------------------------------3-----|-5--------------5--------------5---------|------5--------------5---------5---------|
G|------5--------------5---------2-----|-4--------------4--------------4---------|------4--------------4---------4---------|
D|------5--------------5---------0-----|-2----2----2----2----2----2----2----2----|-2----2----2----2----2----2----2----2----|
A|-3----3----3----3----3----3----------|-----------------------------------------|-----------------------------------------|
E|-------------------------------------|-----------------------------------------|-----------------------------------------|

E|-----------------------------------------|-----------------------------------------|
B|-5--------------5--------------5---------|------5--------------5---------5---------|
G|-4--------------4--------------4---------|------4--------------4---------4---------|
D|-2----2----2----2----2----2----2----2----|-2----2----2----2----2----2----2----2----|
A|-----------------------------------------|-----------------------------------------|
E|-----------------------------------------|-----------------------------------------|

E|-----------------------------------------|-----------------------------------------|
B|-3--------------3--------------3---------|------3--------------3---------3---------|
G|-2--------------2--------------2---------|------2--------------2---------2---------|
D|-0----0----0----0----0----0----0----0----|-0----0----0----0----0----0----0----0----|
A|-----------------------------------------|-----------------------------------------|
E|-----------------------------------------|-----------------------------------------|

E|-----------------------------------------|-------------------------------------|-----------------------------------------|
B|-----------------------------------------|-------------------------------3-----|-5--------------5--------------5---------|
G|-5--------------5--------------5---------|------5--------------5---------2-----|-4--------------4--------------4---------|
D|-5--------------5--------------5---------|------5--------------5---------0-----|-2----2----2----2----2----2----2----2----|
A|-3----3----3----3----3----3----3----3----|-3----3----3----3----3----3----------|-----------------------------------------|
E|-----------------------------------------|-------------------------------------|-----------------------------------------|

E|-----------------------------------------|-----------------------------------------|
B|------5--------------5---------5---------|-5--------------5--------------5---------|
G|------4--------------4---------4---------|-4--------------4--------------4---------|
D|-2----2----2----2----2----2----2----2----|-2----2----2----2----2----2----2----2----|
A|-----------------------------------------|-----------------------------------------|
E|-----------------------------------------|-----------------------------------------|

E|-----------------------------------------|-----------------------------------------|
B|------5--------------5---------5---------|-3--------------3--------------3---------|
G|------4--------------4---------4---------|-2--------------2--------------2---------|
D|-2----2----2----2----2----2----2----2----|-0----0----0----0----0----0----0----0----|
A|-----------------------------------------|-----------------------------------------|
E|-----------------------------------------|-----------------------------------------|

E|-----------------------------------------|-----------------------------------------|
B|------3--------------3---------3---------|-----------------------------------------|
G|------2--------------2---------2---------|-5--------------5--------------5---------|
D|-0----0----0----0----0----0----0----0----|-5--------------5--------------5---------|
A|-----------------------------------------|-3----3----3----3----3----3----3----3----|
E|-----------------------------------------|-----------------------------------------|

E|-------------------------------------|-----------------------------------------|-----------------------------------------|
B|-------------------------------3-----|-5--------------5--------------5---------|------5--------------5---------5---------|
G|------5--------------5---------2-----|-4--------------4--------------4---------|------4--------------4---------4---------|
D|------5--------------5---------0-----|-2----2----2----2----2----2----2----2----|-2----2----2----2----2----2----2----2----|
A|-3----3----3----3----3----3----------|-----------------------------------------|-----------------------------------------|
E|-------------------------------------|-----------------------------------------|-----------------------------------------|

E|-----------------------------------------|-----------------------------------------|
B|-5--------------5--------------5---------|------5--------------5---------5---------|
G|-4--------------4--------------4---------|------4--------------4---------4---------|
D|-2----2----2----2----2----2----2----2----|-2----2----2----2----2----2----2----2----|
A|-----------------------------------------|-----------------------------------------|
E|-----------------------------------------|-----------------------------------------|

E|-----------------------------------------|-----------------------------------------|
B|-3--------------3--------------3---------|------3--------------3---------3---------|
G|-2--------------2--------------2---------|------2--------------2---------2---------|
D|-0----0----0----0----0----0----0----0----|-0----0----0----0----0----0----0----0----|
A|-----------------------------------------|-----------------------------------------|
E|-----------------------------------------|-----------------------------------------|

E|-----------------------------------------|-------------------------------------|---------|
B|-----------------------------------------|-------------------------------3-----|---------|
G|-5--------------5--------------5---------|------5--------------5---------2-----|---------|
D|-5--------------5--------------5---------|------5--------------5---------0-----|-5-------|
A|-3----3----3----3----3----3----3----3----|-3----3----3----3----3----3----------|-5-------|
E|-----------------------------------------|-------------------------------------|-3-------|

E|---------------|---------|---------------|---------|---------|-3-------|-3-------|
B|---------------|---------|---------------|---------|---------|-3-------|-3-------|
G|-5-------------|-7-------|-5-------------|---------|-7-------|-0-------|-0-------|
D|-5------7------|-7-------|-5------7------|-2-------|-7-------|-2-------|-2-------|
A|-3------7------|-5-------|-3------7------|-2-------|-5-------|-3-------|-3-------|
E|--------5------|---------|--------5------|-0-------|---------|---------|---------|

E|---------|---------------|---------|---------------|---------|---------|-3-------|
B|---------|---------------|---------|---------------|---------|---------|-3-------|
G|---------|-5-------------|-7-------|-5-------------|---------|-7-------|-0-------|
D|-5-------|-5------7------|-7-------|-5------7------|-2-------|-7-------|-2-------|
A|-5-------|-3------7------|-5-------|-3------7------|-2-------|-5-------|-3-------|
E|-3-------|--------5------|---------|--------5------|-0-------|---------|---------|

E|-3-------------|---------|---------------|---------|---------------|---------|---------|
B|-3-------3-----|---------|---------------|---------|---------------|---------|---------|
G|-0-------2-----|---------|-5-------------|-7-------|-5-------------|---------|-7-------|
D|-2-------0-----|-5-------|-5------7------|-7-------|-5------7------|-2-------|-7-------|
A|-3-------------|-5-------|-3------7------|-5-------|-3------7------|-2-------|-5-------|
E|---------------|-3-------|--------5------|---------|--------5------|-0-------|---------|

E|-3-------|-3-------|---------|---------------|---------|---------------|---------|
B|-3-------|-3-------|---------|---------------|---------|---------------|---------|
G|-0-------|-0-------|---------|-5-------------|-7-------|-5-------------|---------|
D|-2-------|-2-------|-5-------|-5------7------|-7-------|-5------7------|-2-------|
A|-3-------|-3-------|-5-------|-3------7------|-5-------|-3------7------|-2-------|
E|---------|---------|-3-------|--------5------|---------|--------5------|-0-------|

E|---------|-3-------|-3-------------|-0-------|-0-------|-0-------|-0-------0-----|
B|---------|-3-------|-3-------3-----|-0-------|-0-------|-0-------|-0-------0-----|
G|-7-------|-0-------|-0-------2-----|-4-------|-4-------|-4-------|-4-------4-----|
D|-7-------|-2-------|-2-------0-----|-2-------|-2-------|-2-------|-2-------2-----|
A|-5-------|-3-------|-3-------------|-2-------|-2-------|-2-------|-2-------2-----|
E|---------|---------|---------------|-0-------|-0-------|-0-------|-0-------0-----|

E|-0-------|-0-------|-0-------|-0-------|---------|---------|---------------------|
B|-0-------|-0-------|-0-------|-0-------|-3-------|-3-------|---------------------|
G|-4-------|-4-------|-4-------|-4-------|-2-------|-2-------|-5------4------2-----|
D|-2-------|-2-------|-2-------|-2-------|-0-------|-0-------|-5------4------2-----|
A|-2-------|-2-------|-2-------|-2-------|---------|---------|-3------2------0-----|
E|-0-------|-0-------|-0-------|-0-------|---------|---------|---------------------|

E|-----------------------------|---------|---------|---------|
B|-----------------------------|---------|---------|---------|
G|-2---------------------------|---------|---------|---------|
D|-2----5------7----5----2-----|-2-------|-2-------|-2-------|
A|-0----5------7----5----2-----|-2-------|-2-------|-2-------|
E|------3------5----3----0-----|-0-------|-0-------|-0-------|
Iron Maiden - Wasted Years (2)
Iron Maiden - Wasted Years (2).gp3