Iron Maiden - Wasting Love

Iron Maiden



Title: Wasting Love 
Album: Fear of the Dark
Artist: Iron Maiden
Author: 

Track 1: Bass
G|---------|---------------|---------|---------------|--------4---2---0-------0---------------|
D|-%-------|-2-------------|-0-------|-2-------------|-0------------------4-------4---2---0---|
A|-%-------|--------3------|---------|--------3------|----------------------------------------|
E|---------|---------------|---------|---------------|----------------------------------------|

G|---------------|--------4---2---0-------0---------------|---------------|----------------------------------|
D|-2-------------|-0------------------4-------4---2---0---|-2-------------|-0--------------%----0---0---%----|
A|--------3------|----------------------------------------|--------3------|--------3---3---%------------%----|
E|---------------|----------------------------------------|---------------|----------------------------------|

G|---------|-----------------9---12--9-------7---|-9-------7---------------|---------|
D|---------|-----%------%----------------%-------|-------------9---%---7---|---------|
A|---------|-----%------%----------------%-------|-----------------%-------|-7-------|
E|-0-------|-0-----------------------------------|-------------------------|---------|

G|---------|---------|---------|---------|---------|------------------------|---------|
D|---------|---------|---------|---------|---------|------------------------|---------|
A|---------|---------|---------|---------|-0-------|-0------0-----0---2-----|---------|
E|-0-------|-0-------|-0-------|-0-------|---------|------------------------|-0-------|

G|---------|---------|---------|---------|---------|----------------------------------|
D|---------|---------|---------|---------|---------|--------------------------%-------|
A|---------|---------|---------|---------|---------|-0------0-----------------%-------|
E|-0-------|-0-------|-0-------|-0-------|-0-------|--------------0---3---0-------3---|

G|---------------|---------|---------|---------------|----------------------------------|
D|---------------|---------|---------|-2-------------|-0--------------%------------%----|
A|-0-------2-----|---------|---------|--------3------|----------------%----2---2---%----|
E|---------------|-0-------|-0-------|---------------|--------3---3---------------------|

G|---------------|----------------------------------------|---------------|----------------------------------|
D|-2-------------|-0--------------------------------------|-2-------------|-0--------------%------------%----|
A|--------3------|------------------------2---2---2---2---|--------3------|----------------%----5---5---%----|
E|---------------|--------3---3---3---3-------------------|---------------|--------3---3---------------------|

G|---------------|---------------|---------|---------|---------|--------|---------|
D|-2-------------|-0-------------|-%-------|-%-------|-%-------|-%------|---------|
A|--------3------|--------3------|-%-------|-%-------|-%-------|-%------|---------|
E|---------------|---------------|---------|---------|---------|--------|-0-------|

G|---------|---------|---------|---------------|---------------|---------|---------|
D|---------|---------|---------|---------------|---------------|---------|---------|
A|---------|---------|---------|-0-------------|-0-------2-----|---------|---------|
E|-0-------|-0-------|-0-------|---------0-----|---------------|-0-------|-0-------|

G|----------------------------------|---------------|---------|---------|---------------|
D|--------------------------%-------|---------------|---------|---------|-2-------------|
A|-0------0-----------------%-------|-0-------2-----|---------|---------|--------3------|
E|--------------0---3---0-------3---|---------------|-0-------|-0-------|---------------|

G|----------------------------------|---------------|----------------------------------------|
D|-0--------------%------------%----|-2-------------|-0--------------------------------------|
A|----------------%------------%----|--------3------|----------------------------------------|
E|--------3---3--------1---1--------|---------------|--------3---3---3---3---2---2---2---2---|

G|---------------|----------------------------------|---------------|---------------|
D|-2-------------|-0--------------%------------%----|-2-------------|-0-------------|
A|--------3------|----------------%----5---5---%----|--------3------|--------3------|
E|---------------|--------3---3---------------------|---------------|---------------|

G|---------|---------|---------|--------|---------------|---------|---------------|
D|-%-------|-%-------|-%-------|-%------|-2-------------|-0-------|-2-------------|
A|-%-------|-%-------|-%-------|-%------|--------3------|---------|--------3------|
E|---------|---------|---------|--------|---------------|---------|---------------|

G|--------4---2---0-------0---------------|---------------|--------4---2---0-------0---------------|
D|-0------------------4-------4---2---0---|-2-------------|-0------------------4-------4---2---0---|
A|----------------------------------------|--------3------|----------------------------------------|
E|----------------------------------------|---------------|----------------------------------------|

G|---------------|----------------------------------|-----------------0-----------------------0-------7---------|
D|-2-------------|-0--------------%----0---0---%----|---------4-----------4-----------%---4-------4--------%----|
A|--------3------|--------3---3---%------------%----|-----2-------2-----------2---3---%--------------------%----|
E|---------------|----------------------------------|-0---------------------------------------------------------|

G|-----------------0-----------------------0-------7---------|-----------------0-----------------------0-------7---------|
D|---------4-----------4-----------%---4-------4--------%----|---------4-----------4-----------%---4-------4--------%----|
A|-------------2-----------2---3---%--------------------%----|-------------2-----------2---3---%--------------------%----|
E|-0---7-----------------------------------------------------|-0---7-----------------------------------------------------|

G|-----------------0-----------------------0-------7---------|------------------------------------------|
D|---------4-----------4-----------%---4-------4--------%----|-------------------------------%-----%----|
A|-------------2-----------2---3---%--------------------%----|-7---7---7---7---7-------------%-----%----|
E|-0---7-----------------------------------------------------|-----------------------8---8--------------|

G|-------------------------------------------------|------------------------------------------|
D|-----------------------0---0---%------------%----|-2---2---2---2---2-------------%-----%----|
A|-0---0---0---0---0-------------%----2---2---%----|-----------------------3---3---%-----%----|
E|-------------------------------------------------|------------------------------------------|

G|-------------------------------------------------|------------------------------------------|
D|-----------------------0---0---%------------%----|-2---2---2---2---2-------------%-----%----|
A|-0---0---0---0---0-------------%----2---2---%----|-----------------------3---3---%-----%----|
E|-------------------------------------------------|------------------------------------------|

G|-------------------------------------------------|------------------------------------------|
D|-----------------------0---0---%------------%----|-2---2---2---2---2-------------%-----%----|
A|-0---0---0---0---0-------------%----2---2---%----|-----------------------3---3---%-----%----|
E|-------------------------------------------------|------------------------------------------|

G|-------------------------------------------------|---------------|----------------------------------|
D|-----------------------0---0---%-------------%---|-2-------------|-0--------------%------------%----|
A|-0---0---0---0---0-------------%----2---2----%---|--------3------|----------------%----2---2---%----|
E|-------------------------------------------------|---------------|--------3---3---------------------|

G|---------------|----------------------------------------|---------------|----------------------------------|
D|-2-------------|-0--------------------------------------|-2-------------|-0--------------%------------%----|
A|--------3------|----------------------------------------|--------3------|----------------%----5---5---%----|
E|---------------|--------3---3---3---3---2---2---2---2---|---------------|--------3---3---------------------|

G|---------------|----------------------------------------|-----------------------|
D|-2-------------|-0--------------------------------------|-2-----------------%---|
A|--------3------|------------------------2---2---2---2---|--------3------3---%---|
E|---------------|--------3---3---3---3-------------------|-----------------------|

G|----------------------------------|---------------|----------------------------------------|
D|-0--------------%------------%----|-2-------------|-0--------------------------------------|
A|----------------%------------%----|--------3------|----------------------------------------|
E|--------3---3--------1---1--------|---------------|--------3---3---3---3---2---2---2---2---|

G|---------------|----------------------------------|---------------|---------------|
D|-2-------------|-0--------------%------------%----|-2-------------|-0-------------|
A|--------3------|----------------%----5---5---%----|--------3------|--------3------|
E|---------------|--------3---3---------------------|---------------|---------------|

G|---------------|--------------------|
D|-0------2------|-2-----%------%-----|
A|---------------|-------%------%-----|
E|---------------|--------------------|
Iron Maiden - Wasting Love
Iron Maiden - Wasting Love.gp3