Iron Maiden - Wasting Love (3)

Iron Maiden



Title: Wasting Love
Album: Fear Of The Dark
Artist: Iron Maiden
Author: 

Track 1: Dave Murray (Riffs and Solo)
E|---------|----------------------8-----|--------10--8---7-------7---------------|----------------------10----|
B|---------|-8------10--12--------------|-10-----------------10------10--8---7---|-8------10--12--------------|
G|-%-------|----------------9-----------|----------------------------------------|----------------9-----------|
D|-%-------|----------------------------|----------------------------------------|----------------------------|
A|---------|----------------------------|----------------------------------------|----------------------------|
E|---------|----------------------------|----------------------------------------|----------------------------|

E|-10-----10--8---7-------7---------------|----------------------8-----|--------10--8---7-------7---------------|
B|--------------------10------10--8---7---|-8------10--12--------------|-10-----------------10------10--8---7---|
G|----------------------------------------|----------------9-----------|----------------------------------------|
D|----------------------------------------|----------------------------|----------------------------------------|
A|----------------------------------------|----------------------------|----------------------------------------|
E|----------------------------------------|----------------------------|----------------------------------------|

E|----------------------8-----|--------10--8---7-------7---------------|---------|---------|
B|-8------10--12--------------|-10-----------------10------10--8---7---|-8-------|---------|
G|----------------9-----------|----------------------------------------|---------|-%-------|
D|----------------------------|----------------------------------------|---------|-%-------|
A|----------------------------|----------------------------------------|---------|---------|
E|----------------------------|----------------------------------------|---------|---------|

E|---------|---------|---------|---------|---------|---------|---------|---------|---------|
B|---------|---------|---------|---------|---------|---------|---------|---------|---------|
G|-%-------|-%-------|-%-------|-%-------|-%-------|-%-------|-%-------|-%-------|-%-------|
D|-%-------|-%-------|-%-------|-%-------|-%-------|-%-------|-%-------|-%-------|-%-------|
A|---------|---------|---------|---------|---------|---------|---------|---------|---------|
E|---------|---------|---------|---------|---------|---------|---------|---------|---------|

E|---------|---------|---------|---------|---------|---------|---------|---------|---------|
B|---------|---------|---------|---------|---------|---------|---------|---------|---------|
G|-%-------|-%-------|-%-------|-%-------|-%-------|-%-------|-%-------|-%-------|-%-------|
D|-%-------|-%-------|-%-------|-%-------|-%-------|-%-------|-%-------|-%-------|-%-------|
A|---------|---------|---------|---------|---------|---------|---------|---------|---------|
E|---------|---------|---------|---------|---------|---------|---------|---------|---------|

E|----------------------------|---------------------------------------------|----------------------------|
B|----------------------------|---------------------------------------------|----------------------------|
G|----------------------------|---------------------%---%-----------%---%---|----------------------------|
D|-2-----9-----5------5---5---|-7------7------------%---%-----------%---%---|-2-----9-----5------5---5---|
A|-2-----7-----3------3---3---|-5------5----5---5-----------3---3-----------|-2-----7-----3------3---3---|
E|-0--------------------------|-------------3---3-----------1---1-----------|-0--------------------------|

E|----------------------------------------------------------------|----------------------------|
B|----------------------------------------------------------------|----------------------------|
G|-------------------%-----%-----%-----%-----%-----%-----%-----%--|----------------------------|
D|-7------7---7------%-----%-----%-----%-----%-----%-----%-----%--|-2-----9-----5------5---5---|
A|-5------5---5---5-----5-----5-----5-----4-----4-----4-----4-----|-2-----7-----3------3---3---|
E|----------------3-----3-----3-----3-----2-----2-----2-----2-----|-0--------------------------|

E|---------------------------------------|----------------------------|---------------|
B|---------------------------------------|----------------------------|---------------|
G|---------------------%------------%----|----------------------------|---------------|
D|-7------7------------%----7---7---%----|-2-----9-----5------5---5---|-7------5------|
A|-5------5----5---5--------5---5--------|-2-----7-----3------3---3---|-5------3------|
E|-------------3---3---------------------|-0--------------------------|---------------|

E|---------|---------|---------|--------|---------|---------|---------|---------|---------|
B|---------|---------|---------|--------|---------|---------|---------|---------|---------|
G|-%-------|-%-------|-%-------|-%------|-%-------|-%-------|-%-------|-%-------|-%-------|
D|-%-------|-%-------|-%-------|-%------|-%-------|-%-------|-%-------|-%-------|-%-------|
A|---------|---------|---------|--------|---------|---------|---------|---------|---------|
E|---------|---------|---------|--------|---------|---------|---------|---------|---------|

E|---------|---------|---------|---------|---------|---------|---------|----------------------------|
B|---------|---------|---------|---------|---------|---------|---------|----------------------------|
G|-%-------|-%-------|-%-------|-%-------|-%-------|-%-------|-%-------|----------------------------|
D|-%-------|-%-------|-%-------|-%-------|-%-------|-%-------|-%-------|-2-----9-----5------5---5---|
A|---------|---------|---------|---------|---------|---------|---------|-2-----7-----3------3---3---|
E|---------|---------|---------|---------|---------|---------|---------|-0--------------------------|

E|---------------------------------------------|----------------------------|----------------------------------------------------------------|
B|---------------------------------------------|----------------------------|----------------------------------------------------------------|
G|---------------------%---%-----------%---%---|----------------------------|-------------------%-----%-----%-----%-----%-----%-----%-----%--|
D|-7------7------------%---%-----------%---%---|-2-----9-----5------5---5---|-7------7---7------%-----%-----%-----%-----%-----%-----%-----%--|
A|-5------5----5---5-----------3---3-----------|-2-----7-----3------3---3---|-5------5---5---5-----5-----5-----5-----4-----4-----4-----4-----|
E|-------------3---3-----------1---1-----------|-0--------------------------|----------------3-----3-----3-----3-----2-----2-----2-----2-----|

E|----------------------------|---------------------------------------|----------------------------|
B|----------------------------|---------------------------------------|----------------------------|
G|----------------------------|---------------------%------------%----|----------------------------|
D|-2-----9-----5------5---5---|-7------7------------%----7---7---%----|-2-----9-----5------5---5---|
A|-2-----7-----3------3---3---|-5------5----5---5--------5---5--------|-2-----7-----3------3---3---|
E|-0--------------------------|-------------3---3---------------------|-0--------------------------|

E|---------------|---------|---------|---------|--------|----------------------8-----|
B|---------------|---------|---------|---------|--------|-8------10--12--------------|
G|---------------|-%-------|-%-------|-%-------|-%------|----------------9-----------|
D|-7------5------|-%-------|-%-------|-%-------|-%------|----------------------------|
A|-5------3------|---------|---------|---------|--------|----------------------------|
E|---------------|---------|---------|---------|--------|----------------------------|

E|--------10--8---7-------7---------------|----------------------8-----|--------10--8---7-------7---------------|
B|-10-----------------10------10--8---7---|-8------10--12--------------|-10-----------------10------10--8---7---|
G|----------------------------------------|----------------9-----------|----------------------------------------|
D|----------------------------------------|----------------------------|----------------------------------------|
A|----------------------------------------|----------------------------|----------------------------------------|
E|----------------------------------------|----------------------------|----------------------------------------|

E|----------------------8-----|--------10--8---7-------7---------------|----------------------8-----|
B|-8------10--12--------------|-10-----------------10------10--8---7---|-8------10--12--------------|
G|----------------9-----------|----------------------------------------|----------------9-----------|
D|----------------------------|----------------------------------------|----------------------------|
A|----------------------------|----------------------------------------|----------------------------|
E|----------------------------|----------------------------------------|----------------------------|

E|----------------------------------|-----------------------------------------------------------------------------|
B|-10-------------------------------|-----------------------------------------------------------------------3-----|
G|----------------%------------%----|----%-----%-----%-----%--0--%-----%-----%-----%--%------%--0--%-----%--------|
D|--------5---5---%----7---7---%----|----%-----%--4--%-----%-----%--4--%-----%-----%--%---4--%-----%--4--%--------|
A|--------3---3--------5---5--------|-------2-----------2-----------------2-----3---------------------------------|
E|----------------------------------|-0---------------------------------------------------------------------------|

E|-----------------------------------------------------------------------------|-----------------------------------------------------------------------------|
B|-----------------------------------------------------------------------3-----|-----------------------------------------------------------------------3-----|
G|----%-----%-----%-----%--0--%-----%-----%-----%--%------%--0--%-----%--------|----%-----%-----%-----%--0--%-----%-----%-----%--%------%--0--%-----%--------|
D|----%-----%--4--%-----%-----%--4--%-----%-----%--%---4--%-----%--4--%--------|----%-----%--4--%-----%-----%--4--%-----%-----%--%---4--%-----%--4--%--------|
A|-------2-----------2-----------------2-----3---------------------------------|-------2-----------2-----------------2-----3---------------------------------|
E|-0---------------------------------------------------------------------------|-0---------------------------------------------------------------------------|

E|-----------------------------------------------------------------------------|-----8----------------------------------------------------------|
B|-----------------------------------------------------------------------3-----|-15--15--15-----------------------------------------------------|
G|----%-----%-----%-----%--0--%-----%-----%-----%--%------%--0--%-----%--------|-14--14--14------12--12--12--12--12--12--12--12---0---%---------|
D|----%-----%--4--%-----%-----%--4--%-----%-----%--%---4--%-----%--4--%--------|-------------14----------------------12--12--12---0---%---12-14-|
A|-------2-----------2-----------------2-----3---------------------------------|----------------------------------------------------------------|
E|-0---------------------------------------------------------------------------|----------------------------------------------------------------|

E|---------------------------------------------------|-15------14------12---------------------------------------|
B|-----------------------------------------12----12--|-----12------12------15------15----15--13--12---12----12--|
G|---------------------------------------------------|-------------------------%-------------------------%------|
D|-14--12--------------------------------------------|-------------------------%-------------------------%------|
A|---------15--14--14-15-14--12------12--------------|----------------------------------------------------------|
E|-------------------------------15------------------|----------------------------------------------------------|

E|-12------14------15------14------15------17--15--17---17---|-17---15--14--15----17----15--14-----------17--|
B|-----12------12------12------12------12--------------------|----------------------------------15--15-------|
G|-----------------------------------------------------------|-----------------------------------------------|
D|-----------------------------------------------------------|-----------------------------------------------|
A|-----------------------------------------------------------|-----------------------------------------------|
E|-----------------------------------------------------------|-----------------------------------------------|

E|-17---15--14--15--14----------------------X-------|-15--14----------------------------------------------------------|
B|----------------------15--17----17---15---X---12--|---------15--13--12--13--12----------------------------------12--|
G|--------------------------------------------------|-----------------------------14--12--11--12--12--12--12--12------|
D|--------------------------------------------------|-----------------------------------------------------------------|
A|--------------------------------------------------|-----------------------------------------------------------------|
E|--------------------------------------------------|-----------------------------------------------------------------|

E|-12------14------15------17--15--17---17--17--17----|----------------------------|
B|-----12------12------12-----------------------------|----------------------------|
G|----------------------------------------------------|----------------------------|
D|----------------------------------------------------|-2-----9-----5------5---5---|
A|----------------------------------------------------|-2-----7-----3------3---3---|
E|----------------------------------------------------|-0--------------------------|

E|---------------------------------------------|----------------------------|----------------------------------------------------------------|
B|---------------------------------------------|----------------------------|----------------------------------------------------------------|
G|---------------------%---%-----------%---%---|----------------------------|-------------------%-----%-----%-----%-----%-----%-----%-----%--|
D|-7------7------------%---%-----------%---%---|-2-----9-----5------5---5---|-7------7---7------%-----%-----%-----%-----%-----%-----%-----%--|
A|-5------5----5---5-----------3---3-----------|-2-----7-----3------3---3---|-5------5---5---5-----5-----5-----5-----4-----4-----4-----4-----|
E|-------------3---3-----------1---1-----------|-0--------------------------|----------------3-----3-----3-----3-----2-----2-----2-----2-----|

E|----------------------------|---------------------------------------|----------------------------|
B|----------------------------|---------------------------------------|----------------------------|
G|----------------------------|---------------------%------------%----|----------------------------|
D|-2-----9-----5------5---5---|-7------7------------%----7---7---%----|-2-----9-----5------5---5---|
A|-2-----7-----3------3---3---|-5------5----5---5--------5---5--------|-2-----7-----3------3---3---|
E|-0--------------------------|-------------3---3---------------------|-0--------------------------|

E|---------|---------|-------17----17----17----|-17---15----12----0----12--12---15--|
B|---------|---------|-------------------------|------------------------------------|
G|-%-------|-%-------|-%-----------------------|------------------------------------|
D|-%-------|-%-------|-%-----------------------|------------------------------------|
A|---------|---------|-------------------------|------------------------------------|
E|---------|---------|-------------------------|------------------------------------|

E|-12---10----10--7-----7---10----7---|-7-------------|--------------0-----------3---|
B|------------------------------------|---------------|------------------0---3-------|
G|------------------------------------|--------%------|-%------%---------------------|
D|------------------------------------|--------%------|-%------%---------------------|
A|------------------------------------|---------------|------------------------------|
E|------------------------------------|---------------|------------------------------|

E|-3------2------|-0-------|-0-------|---------|
B|---------------|---------|---------|---------|
G|---------------|---------|---------|-%-------|
D|---------------|---------|---------|-%-------|
A|---------------|---------|---------|---------|
E|---------------|---------|---------|---------|
Iron Maiden - Wasting Love (3)
Iron Maiden - Wasting Love (3).gp3