Iron Maiden - Wasting Love (4)

Iron Maiden



Title: Wasting love
Album: Fear of the dark
Artist: Iron Maiden
Author: Bruce Dickinson & Janick Gers

Track 1: Guitar 1
E|----------------------------|--------10-----------------------------------|----------------------------|
B|-8------10--12--------13----|-10---------13--12--10--12--10-12-10-8---7---|-8------10--12--------13----|
G|----------------9-----------|---------------------------------------------|----------------9-----------|
D|----------------------------|---------------------------------------------|----------------------------|
A|----------------------------|---------------------------------------------|----------------------------|
E|----------------------------|---------------------------------------------|----------------------------|

E|--------10------------------------------|----------------------------|--------10-----------------------------------|
B|-10---------13--12--10--12--10--8---7---|-8------10--12--------13----|-10---------13--12--10--12--10-12-10-8---7---|
G|----------------------------------------|----------------9-----------|---------------------------------------------|
D|----------------------------------------|----------------------------|---------------------------------------------|
A|----------------------------------------|----------------------------|---------------------------------------------|
E|----------------------------------------|----------------------------|---------------------------------------------|

E|----------------------------|--------10------------------------------|---------|---------|
B|-8------10--12--------13----|-10---------13--12--10--12--10--8---7---|-8-------|---------|
G|----------------9-----------|----------------------------------------|---------|-%-------|
D|----------------------------|----------------------------------------|---------|-%-------|
A|----------------------------|----------------------------------------|---------|---------|
E|----------------------------|----------------------------------------|---------|---------|

E|---------|---------|---------|---------|---------|---------|---------|---------|---------|
B|---------|---------|---------|---------|---------|---------|---------|---------|---------|
G|-%-------|-%-------|-%-------|-%-------|-%-------|-%-------|-%-------|-%-------|-%-------|
D|-%-------|-%-------|-%-------|-%-------|-%-------|-%-------|-%-------|-%-------|-%-------|
A|---------|---------|---------|---------|---------|---------|---------|---------|---------|
E|---------|---------|---------|---------|---------|---------|---------|---------|---------|

E|---------|---------|---------|---------|---------|---------|---------|---------|---------|
B|---------|---------|---------|---------|---------|---------|---------|---------|---------|
G|-%-------|-%-------|-%-------|-%-------|-%-------|-%-------|-%-------|-%-------|-%-------|
D|-%-------|-%-------|-%-------|-%-------|-%-------|-%-------|-%-------|-%-------|-%-------|
A|---------|---------|---------|---------|---------|---------|---------|---------|---------|
E|---------|---------|---------|---------|---------|---------|---------|---------|---------|

E|---------|---------|---------|---------|---------|---------|---------|---------|---------|
B|---------|---------|---------|---------|---------|---------|---------|---------|---------|
G|-%-------|-%-------|-%-------|-%-------|-%-------|-%-------|-%-------|-%-------|-%-------|
D|-%-------|-%-------|-%-------|-%-------|-%-------|-%-------|-%-------|-%-------|-%-------|
A|---------|---------|---------|---------|---------|---------|---------|---------|---------|
E|---------|---------|---------|---------|---------|---------|---------|---------|---------|

E|---------|---------|--------|---------|---------|---------|---------|---------|---------|
B|---------|---------|--------|---------|---------|---------|---------|---------|---------|
G|-%-------|-%-------|-%------|-%-------|-%-------|-%-------|-%-------|-%-------|-%-------|
D|-%-------|-%-------|-%------|-%-------|-%-------|-%-------|-%-------|-%-------|-%-------|
A|---------|---------|--------|---------|---------|---------|---------|---------|---------|
E|---------|---------|--------|---------|---------|---------|---------|---------|---------|

E|---------|---------|---------|---------|---------|---------|---------|---------|---------|
B|---------|---------|---------|---------|---------|---------|---------|---------|---------|
G|-%-------|-%-------|-%-------|-%-------|-%-------|-%-------|-%-------|-%-------|-%-------|
D|-%-------|-%-------|-%-------|-%-------|-%-------|-%-------|-%-------|-%-------|-%-------|
A|---------|---------|---------|---------|---------|---------|---------|---------|---------|
E|---------|---------|---------|---------|---------|---------|---------|---------|---------|

E|---------|---------|---------|---------|---------|---------|---------|---------|--------|
B|---------|---------|---------|---------|---------|---------|---------|---------|--------|
G|-%-------|-%-------|-%-------|-%-------|-%-------|-%-------|-%-------|-%-------|-%------|
D|-%-------|-%-------|-%-------|-%-------|-%-------|-%-------|-%-------|-%-------|-%------|
A|---------|---------|---------|---------|---------|---------|---------|---------|--------|
E|---------|---------|---------|---------|---------|---------|---------|---------|--------|

E|----------------------------|--------10-----------------------------------|----------------------------|
B|-8------10--12--------13----|-10---------13--12--10--12--10-12-10-8---7---|-8------10--12--------13----|
G|----------------9-----------|---------------------------------------------|----------------9-----------|
D|----------------------------|---------------------------------------------|----------------------------|
A|----------------------------|---------------------------------------------|----------------------------|
E|----------------------------|---------------------------------------------|----------------------------|

E|--------10------------------------------|----------------------------|--------10-----------------------------------|
B|-10---------13--12--10--12--10--8---7---|-8------10--12--------13----|-10---------13--12--10--12--10-12-10-8---7---|
G|----------------------------------------|----------------9-----------|---------------------------------------------|
D|----------------------------------------|----------------------------|---------------------------------------------|
A|----------------------------------------|----------------------------|---------------------------------------------|
E|----------------------------------------|----------------------------|---------------------------------------------|

E|----------------------------|---------------|---------|---------|---------|---------|
B|-8------10--12--------13----|-10------------|---------|---------|---------|---------|
G|----------------9-----------|--------%------|-%-------|-%-------|-%-------|-%-------|
D|----------------------------|--------%------|-%-------|-%-------|-%-------|-%-------|
A|----------------------------|---------------|---------|---------|---------|---------|
E|----------------------------|---------------|---------|---------|---------|---------|

E|---------|---------|---------|---------|---------|---------|---------|---------|---------|
B|---------|---------|---------|---------|---------|---------|---------|---------|---------|
G|-%-------|-%-------|-%-------|-%-------|-%-------|-%-------|-%-------|-%-------|-%-------|
D|-%-------|-%-------|-%-------|-%-------|-%-------|-%-------|-%-------|-%-------|-%-------|
A|---------|---------|---------|---------|---------|---------|---------|---------|---------|
E|---------|---------|---------|---------|---------|---------|---------|---------|---------|

E|---------|---------|---------|---------|---------|---------|---------|---------|---------|
B|---------|---------|---------|---------|---------|---------|---------|---------|---------|
G|-%-------|-%-------|-%-------|-%-------|-%-------|-%-------|-%-------|-%-------|-%-------|
D|-%-------|-%-------|-%-------|-%-------|-%-------|-%-------|-%-------|-%-------|-%-------|
A|---------|---------|---------|---------|---------|---------|---------|---------|---------|
E|---------|---------|---------|---------|---------|---------|---------|---------|---------|

E|---------|---------|---------|---------|---------|-12-----10-----|---------|
B|---------|---------|---------|---------|---------|---------------|---------|
G|-%-------|-%-------|-%-------|-%-------|-%-------|---------------|-%-------|
D|-%-------|-%-------|-%-------|-%-------|-%-------|---------------|-%-------|
A|---------|---------|---------|---------|---------|---------------|---------|
E|---------|---------|---------|---------|---------|---------------|---------|
Iron Maiden - Wasting Love (4)
Iron Maiden - Wasting Love (4).gp3