Iron Maiden - Wasting Love (intro)

Iron Maiden - Wasting Love (intro)

Iron Maiden



Title: Wasting Love (Intro)
Album: Fear Of The Dark
Artist: Iron Maiden
Author: Iron Maiden

Track 1: Traccia 1
E|------------------------|---------------|-----------------------------------------|
B|------------------------|-10------------|-12---10---------------------------------|
G|-9------11---12---------|--------11-----|-----------12---11---12---11---9---------|
D|------------------10----|---------------|------------------------------------12---|
A|------------------------|---------------|-----------------------------------------|
E|------------------------|---------------|-----------------------------------------|

E|------------------------|---------------|-----------------------------------------|
B|------------------------|-10------------|-12---10---------------------------------|
G|-9------11---12---------|--------11-----|-----------12---11---12---11---9---------|
D|------------------10----|---------------|------------------------------------12---|
A|------------------------|---------------|-----------------------------------------|
E|------------------------|---------------|-----------------------------------------|

E|------------------------|---------------|-----------------------------------------|
B|------------------------|-10------------|-12---10---------------------------------|
G|-9------11---12---------|--------11-----|-----------12---11---12---11---9---------|
D|------------------10----|---------------|------------------------------------12---|
A|------------------------|---------------|-----------------------------------------|
E|------------------------|---------------|-----------------------------------------|

E|------------------------|---------------|-----------------------------------------|
B|------------------------|-10------------|-12---10---------------------------------|
G|-9------11---12---------|--------11-----|-----------12---11---12---11---9---------|
D|------------------10----|---------------|------------------------------------12---|
A|------------------------|---------------|-----------------------------------------|
E|------------------------|---------------|-----------------------------------------|

E|---------|
B|---------|
G|-9-------|
D|---------|
A|---------|
E|---------|
Iron Maiden - Wasting Love (intro)
Iron Maiden - Wasting Love (intro).gp3