Iron Maiden - When Two Worlds Collide

Iron Maiden - When Two Worlds Collide

Iron Maiden



Title: When Two Worlds Collide
Album: 
Artist: 
Author: Iron Maiden

Track 1: Guitar 1
E|---------|---------|---------|---------|---------|---------|---------|---------|---------|
B|---------|---------|---------|---------|---------|---------|---------|---------|---------|
G|-%-------|-%-------|-%-------|-%-------|-%-------|-%-------|-%-------|-%-------|-%-------|
D|-%-------|-%-------|-%-------|-%-------|-%-------|-%-------|-%-------|-%-------|-%-------|
A|---------|---------|---------|---------|---------|---------|---------|---------|---------|
E|---------|---------|---------|---------|---------|---------|---------|---------|---------|

E|---------|---------|---------|---------|---------|---------|---------|---------|---------|
B|---------|---------|---------|---------|---------|---------|---------|---------|---------|
G|-%-------|-%-------|-%-------|-%-------|-%-------|-%-------|-%-------|-%-------|-%-------|
D|-%-------|-%-------|-%-------|-%-------|-%-------|-%-------|-%-------|-%-------|-%-------|
A|---------|---------|---------|---------|---------|---------|---------|---------|---------|
E|---------|---------|---------|---------|---------|---------|---------|---------|---------|

E|---------|---------|---------|---------|---------|----------------------------------------------|
B|---------|---------|---------|---------|---------|----------------------------------------------|
G|-%-------|-%-------|-%-------|-%-------|-%-------|----------------------------------------%--%--|
D|-%-------|-%-------|-%-------|-%-------|-%-------|-4----4----4----4----4----4----4-----4--%--%--|
A|---------|---------|---------|---------|---------|-4----4----4----4----4----4----4-----4--------|
E|---------|---------|---------|---------|---------|-2----2----2----2----2----2----2-----2--------|

E|-----------------------------------------------------|-----------------------------------------------------|
B|-----------------------------------------------------|-----------------------------------------------------|
G|-4----4---4---4----4---4---4----4---4---4----4---4---|-4----4---4---4----4---4---4----4---4---4----4---4---|
D|-4----4---4---4----4---4---4----4---4---4----4---4---|-4----4---4---4----4---4---4----4---4---4----4---4---|
A|-2----2---2---2----2---2---2----2---2---2----2---2---|-2----2---2---2----2---2---2----2---2---2----2---2---|
E|-----------------------------------------------------|-----------------------------------------------------|

E|-----------------------------------------------------|-----------------------------------------------------|
B|-----------------------------------------------------|-----------------------------------------------------|
G|-----------------------------------------------------|-9----9---9---9----9---9---9----9---9---9----9---9---|
D|-5----5---5---5----5---5---5----5---5---5----5---5---|-9----9---9---9----9---9---9----9---9---9----9---9---|
A|-5----5---5---5----5---5---5----5---5---5----5---5---|-7----7---7---7----7---7---7----7---7---7----7---7---|
E|-3----3---3---3----3---3---3----3---3---3----3---3---|-----------------------------------------------------|

E|-----------------------------------------------------|-----------------------------------------------------|
B|-----------------------------------------------------|-----------------------------------------------------|
G|-4----4---4---4----4---4---4----4---4---4----4---4---|-4----4---4---4----4---4---4----4---4---4----4---4---|
D|-4----4---4---4----4---4---4----4---4---4----4---4---|-4----4---4---4----4---4---4----4---4---4----4---4---|
A|-2----2---2---2----2---2---2----2---2---2----2---2---|-2----2---2---2----2---2---2----2---2---2----2---2---|
E|-----------------------------------------------------|-----------------------------------------------------|

E|-----------------------------------------------------|-----------------------------------------------------|
B|-----------------------------------------------------|-----------------------------------------------------|
G|-----------------------------------------------------|-4----4---4---4----4---4---4----4---4---4----4---4---|
D|-5----5---5---5----5---5---5----5---5---5----5---5---|-4----4---4---4----4---4---4----4---4---4----4---4---|
A|-5----5---5---5----5---5---5----5---5---5----5---5---|-2----2---2---2----2---2---2----2---2---2----2---2---|
E|-3----3---3---3----3---3---3----3---3---3----3---3---|-----------------------------------------------------|

E|-------------------|-------------------|-------------------|-------------------|-------------------|
B|-------------------|-------------------|-------------------|-------------------|-------------------|
G|---------------%---|-2-------2-----%---|---------------%---|-2-------2-----%---|---------------%---|
D|-5-------5-----%---|-2-------2-----%---|-5-------5-----%---|-2-------2-----%---|-5-------5-----%---|
A|-5-------5---------|-0-------0---------|-5-------5---------|-0-------0---------|-5-------5---------|
E|-3-------3---------|-------------------|-3-------3---------|-------------------|-3-------3---------|

E|-------------------|----------------------------------------------|----------------------------------------------|
B|-------------------|----------------------------------------------|----------------------------------------------|
G|-2-------2-----%---|-4------4---%---6-----6--%--%--7-----7--%--%--|------------%---9-----9--%--%--9-----9--%--%--|
D|-2-------2-----%---|-4------4---%---6-----6--%--%--7-----7--%--%--|-5------5---%---9-----9--%--%--9-----9--%--%--|
A|-0-------0---------|-2------2-------4-----4--------5-----5--------|-5------5-------7-----7--------7-----7--------|
E|-------------------|----------------------------------------------|-3------3-------------------------------------|

E|----------------------------------------------|----------------------------------------------|
B|----------------------------------------------|----------------------------------------------|
G|-4------4---%---6-----6--%--%--7-----7--%--%--|------------%---9-----9--%--%--9-----9--%--%--|
D|-4------4---%---6-----6--%--%--7-----7--%--%--|-5------5---%---9-----9--%--%--9-----9--%--%--|
A|-2------2-------4-----4--------5-----5--------|-5------5-------7-----7--------7-----7--------|
E|----------------------------------------------|-3------3-------------------------------------|

E|----------------------------------------------|----------------------------------------------|
B|----------------------------------------------|----------------------------------------------|
G|-4------4---%---6-----6--%--%--7-----7--%--%--|------------%---9-----9--%--%--9-----9--%--%--|
D|-4------4---%---6-----6--%--%--7-----7--%--%--|-5------5---%---9-----9--%--%--9-----9--%--%--|
A|-2------2-------4-----4--------5-----5--------|-5------5-------7-----7--------7-----7--------|
E|----------------------------------------------|-3------3-------------------------------------|

E|----------------------------------------------|----------------------------------------------|
B|----------------------------------------------|----------------------------------------------|
G|-4------4---%---6-----6--%--%--7-----7--%--%--|------------%---9-----9--%--%--9-----9--%--%--|
D|-4------4---%---6-----6--%--%--7-----7--%--%--|-5------5---%---9-----9--%--%--9-----9--%--%--|
A|-2------2-------4-----4--------5-----5--------|-5------5-------7-----7--------7-----7--------|
E|----------------------------------------------|-3------3-------------------------------------|

E|-----------------------------------------------------|-----------------------------------------------------|
B|-----------------------------------------------------|-----------------------------------------------------|
G|-----------------------------------------------------|-----------------------------------------------------|
D|-4------------4------------4------------4------------|-4------------4------------4------------4------------|
A|-2----2---2---2----2---2---2----2---2---2----2---2---|-2----2---2---2----2---2---2----2---2---2------------|
E|-----------------------------------------------------|---------------------------------------------3---3---|

E|-----------------------------------------------------|-----------------------------------------------------|
B|-----------------------------------------------------|-----------------------------------------------------|
G|-----------------------------------------------------|-----------------------------------------------------|
D|-----------------------------------------------------|-----------------------------------------------------|
A|-5------------5------------5------------5------------|-5------------5------------5------------5------------|
E|-3----3---3---3----3---3---3----3---3---3----3---3---|-3----3---3---3----3---3---3----3---3---3----0---0---|

E|-----------------------------------------------------|-----------------------------------------------------|
B|-----------------------------------------------------|-----------------------------------------------------|
G|-----------------------------------------------------|-----------------------------------------------------|
D|-----------------------------------------------------|-----------------------------------------------------|
A|-2------------2------------2------------2------------|-2------------2------------2------------2------------|
E|-0----0---0---0----0---0---0----0---0---0----0---0---|-0----0---0---0----0---0---0----0---0---0----2---2---|

E|-----------------------------------------------------|-----------------------------------------------------|
B|-----------------------------------------------------|-----------------------------------------------------|
G|-----------------------------------------------------|-----------------------------------------------------|
D|-----------------------------------------------------|-----------------------------------------------------|
A|-4------------4------------4------------4------------|-4------------4------------4------------4------------|
E|-2----2---2---2----2---2---2----2---2---2----2---2---|-2----2---2---2----2---2---2----2---2---2----2---2---|

E|-----------------------------------------------------|-----------------------------------------------------|
B|-----------------------------------------------------|-----------------------------------------------------|
G|-----------------------------------------------------|-----------------------------------------------------|
D|-4------------4------------4------------4------------|-4------------4------------4------------4------------|
A|-2----2---2---2----2---2---2----2---2---2----2---2---|-2----2---2---2----2---2---2----2---2---2------------|
E|-----------------------------------------------------|---------------------------------------------3---3---|

E|-----------------------------------------------------|-----------------------------------------------------|
B|-----------------------------------------------------|-----------------------------------------------------|
G|-----------------------------------------------------|-----------------------------------------------------|
D|-----------------------------------------------------|-----------------------------------------------------|
A|-5------------5------------5------------5------------|-5------------5------------5------------5------------|
E|-3----3---3---3----3---3---3----3---3---3----3---3---|-3----3---3---3----3---3---3----3---3---3----0---0---|

E|-----------------------------------------------------|-----------------------------------------------------|
B|-----------------------------------------------------|-----------------------------------------------------|
G|-----------------------------------------------------|-----------------------------------------------------|
D|-----------------------------------------------------|-----------------------------------------------------|
A|-2------------2------------2------------2------------|-2------------2------------2------------2------------|
E|-0----0---0---0----0---0---0----0---0---0----0---0---|-0----0---0---0----0---0---0----0---0---0----2---2---|

E|-----------------------------------------------------|-----------------------------------------------------|
B|-----------------------------------------------------|-----------------------------------------------------|
G|-----------------------------------------------------|-----------------------------------------------------|
D|-----------------------------------------------------|-----------------------------------------------------|
A|-4------------4------------4------------4------------|-4------------4------------4------------4------------|
E|-2----2---2---2----2---2---2----2---2---2----2---2---|-2----2---2---2----2---2---2----2---2---2----2---2---|

E|-----------------------------------------------------|--------------------------------------------------|
B|-----------------------------------------------------|--------------------------------------------------|
G|-----------------------------------------------------|--------------------------------------------------|
D|-4------------4------------4------------4------------|-4------------4------------4------------4---------|
A|-2----2---2---2----2---2---2----2---2---2----2---2---|-2----2---2---2----2---2---2----2---2---2----5----|
E|-----------------------------------------------------|---------------------------------------------3----|

E|-----------------------------------------------------|--------------------------------------------------|
B|-----------------------------------------------------|--------------------------------------------------|
G|-----------------------------------------------------|--------------------------------------------------|
D|-----------------------------------------------------|--------------------------------------------------|
A|-5------------5------------5------------5------------|-5------------5------------5------------5----2----|
E|-3----3---3---3----3---3---3----3---3---3----3---3---|-3----3---3---3----3---3---3----3---3---3----0----|

E|-----------------------------------------------------|--------------------------------------------------|
B|-----------------------------------------------------|--------------------------------------------------|
G|-----------------------------------------------------|--------------------------------------------------|
D|-----------------------------------------------------|--------------------------------------------------|
A|-2------------2------------2------------2------------|-2------------2------------2------------2----4----|
E|-0----0---0---0----0---0---0----0---0---0----0---0---|-0----0---0---0----0---0---0----0---0---0----2----|

E|-----------------------------------------------------|--------------------------------------------------|
B|-----------------------------------------------------|--------------------------------------------------|
G|-----------------------------------------------------|--------------------------------------------------|
D|-----------------------------------------------------|---------------------------------------------4----|
A|-4------------4------------4------------4------------|-4------------4------------4------------4----2----|
E|-2----2---2---2----2---2---2----2---2---2----2---2---|-2----2---2---2----2---2---2----2---2---2---------|

E|-----------------------------------------------------|--------------------------------------------------|
B|-----------------------------------------------------|--------------------------------------------------|
G|-----------------------------------------------------|--------------------------------------------------|
D|-4------------4------------4------------4------------|-4------------4------------4------------4---------|
A|-2----2---2---2----2---2---2----2---2---2----2---2---|-2----2---2---2----2---2---2----2---2---2----5----|
E|-----------------------------------------------------|---------------------------------------------3----|

E|-----------------------------------------------------|--------------------------------------------------|
B|-----------------------------------------------------|--------------------------------------------------|
G|-----------------------------------------------------|--------------------------------------------------|
D|-----------------------------------------------------|--------------------------------------------------|
A|-5------------5------------5------------5------------|-5------------5------------5------------5----2----|
E|-3----3---3---3----3---3---3----3---3---3----3---3---|-3----3---3---3----3---3---3----3---3---3----0----|

E|-----------------------------------------------------|--------------------------------------------------|
B|-----------------------------------------------------|--------------------------------------------------|
G|-----------------------------------------------------|--------------------------------------------------|
D|-----------------------------------------------------|--------------------------------------------------|
A|-2------------2------------2------------2------------|-2------------2------------2------------2----4----|
E|-0----0---0---0----0---0---0----0---0---0----0---0---|-0----0---0---0----0---0---0----0---0---0----2----|

E|-----------------------------------------------------|-----------------------------------------------------|
B|-----------------------------------------------------|-----------------------------------------------------|
G|-----------------------------------------------------|-----------------------------------------------------|
D|-----------------------------------------------------|-----------------------------------------------------|
A|-4------------4------------4------------4------------|-4------------4------------4------------4------------|
E|-2----2---2---2----2---2---2----2---2---2----2---2---|-2----2---2---2----2---2---2----2---2---2----2---2---|

E|------14----12---------------|-------------------------------------|-----------------------------|
B|-12---------------15----14---|-14---12----14----15----15--15-------|------15----14----12---------|
G|-----------------------------|-------------------------------%--%--|-12---------------------14---|
D|-----------------------------|-------------------------------%--%--|-----------------------------|
A|-----------------------------|-------------------------------------|-----------------------------|
E|-----------------------------|-------------------------------------|-----------------------------|

E|-------------------------------------|-----------------------------|-------------------------------------|
B|-------------------------------------|------12---------------------|-------------------------------------|
G|-14---12----11----12----12--12-%--%--|------------14----12----11---|-11---9-----11----12----12--12-%--%--|
D|-------------------------------%--%--|-14--------------------------|-------------------------------%--%--|
A|-------------------------------------|-----------------------------|-------------------------------------|
E|-------------------------------------|-----------------------------|-------------------------------------|

E|------14----12---------------|-------------------------------------|------14----12---------------|
B|-12---------------15----14---|-14---12----14----15----15--15-------|-12---------------15----14---|
G|-----------------------------|-------------------------------%--%--|-----------------------------|
D|-----------------------------|-------------------------------%--%--|-----------------------------|
A|-----------------------------|-------------------------------------|-----------------------------|
E|-----------------------------|-------------------------------------|-----------------------------|

E|-------------------------------------|-----------------------------|-------------------------------------|
B|-14---12----14----15----15--15-------|------15----14----12---------|-------------------------------------|
G|-------------------------------%--%--|-12---------------------14---|-14---12----11----12----12--12-%--%--|
D|-------------------------------%--%--|-----------------------------|-------------------------------%--%--|
A|-------------------------------------|-----------------------------|-------------------------------------|
E|-------------------------------------|-----------------------------|-------------------------------------|

E|-----------------------------|-------------------------------------|------14----12---------------|
B|------12---------------------|-------------------------------------|-12---------------15----14---|
G|------------14----12----11---|-11---9-----11----12----12--12-%--%--|-----------------------------|
D|-14--------------------------|-------------------------------%--%--|-----------------------------|
A|-----------------------------|-------------------------------------|-----------------------------|
E|-----------------------------|-------------------------------------|-----------------------------|

E|-------------------------------------|-------------------|-------------------------------|
B|-14---12----14----15----15--15-------|-------------------|-------------------------------|
G|-------------------------------%--%--|-9-------9-----%---|------------%---5------5---%---|
D|-------------------------------%--%--|-9-------9-----%---|-5------5---%---5------5---%---|
A|-------------------------------------|-7-------7---------|-5------5-------3------3-------|
E|-------------------------------------|-------------------|-3------3----------------------|

E|-------------------|-------------------------------|-------------------|-------------------------------|
B|-------------------|-------------------------------|-------------------|-------------------------------|
G|-2-------2-----%---|-5------5---%--------------%---|-9-------9-----%---|------------%---5------5---%---|
D|-2-------2-----%---|-5------5---%---5------5---%---|-9-------9-----%---|-5------5---%---5------5---%---|
A|-0-------0---------|-3------3-------5------5-------|-7-------7---------|-5------5-------3------3-------|
E|-------------------|----------------3------3-------|-------------------|-3------3----------------------|

E|-------------------|-----------------------------------24------|-----------24------24--22--24--22-----22-------|
B|-------------------|-------------------------------------------|-----------------------------------------------|
G|-7-------7-----%---|------------%---2-----2---2--%--%------%---|-%----%--------%-------------------------%--%--|
D|-7-------7-----%---|-5------5---%---2-----2---2--%--%------%---|-%----%--------%-------------------------%--%--|
A|-5-------5---------|-5------5-------0-----0---0----------------|-----------------------------------------------|
E|-------------------|-3------3----------------------------------|-----------------------------------------------|

E|-22---22---22--------24------24--22--24--22----|-22----22-------22---22-----22--22-------22------|
B|-----------------------------------------------|---------------------------------------------24--|
G|----------------%--------%---------------------|----------%--%---------------------%--%----------|
D|----------------%--------%---------------------|----------%--%---------------------%--%----------|
A|-----------------------------------------------|-------------------------------------------------|
E|-----------------------------------------------|-------------------------------------------------|

E|-------------------------------|-19----19-------17--19--17--15--17--19--17--15--17--15--14---|
B|-22--------22-----22-------20--|-------------------------------------------------------------|
G|-------24--------------21------|----------%--%-----------------------------------------------|
D|-------------------------------|----------%--%-----------------------------------------------|
A|-------------------------------|-------------------------------------------------------------|
E|-------------------------------|-------------------------------------------------------------|

E|-15--14-----12-14-12-14-12------12--14------12-14--12------12------12------|--------22-24--22--24-22--24-----20--19--20-19--20--|
B|---------15-----------------15----------15-------------15------15------15--|------------------------------24--------------------|
G|---------------------------------------------------------------------------|-%--------------------------------------------------|
D|---------------------------------------------------------------------------|-%--------------------------------------------------|
A|---------------------------------------------------------------------------|----------------------------------------------------|
E|---------------------------------------------------------------------------|----------------------------------------------------|

E|----17--15--17-15--17--15-17--15--17-15--17------------------|------------------12--15--12------15--15-14--14-17---15--15-19--19-17-|
B|-20------------------------------------------15---17---------|--------------15--------------15--------------------------------------|
G|--------------------------------------------------------7----|----------------------------------------------------------------------|
D|-------------------------------------------------------------|-14---12--14----------------------------------------------------------|
A|-------------------------------------------------------------|----------------------------------------------------------------------|
E|-------------------------------------------------------------|----------------------------------------------------------------------|

E|-17--20--20-19--19-22---20--20-24--24-22---19--19-22--22-20----20-|-22---24----------------|
B|------------------------------------------------------------------|------------------------|
G|------------------------------------------------------------------|-----------%-----%------|
D|------------------------------------------------------------------|-----------%-----%------|
A|------------------------------------------------------------------|------------------------|
E|------------------------------------------------------------------|------------------------|

E|---------|---------|------24-24-24-24------22-22-22-22-24-24-24-24-20-20-20-20-22-22-22-22-19-19-19-19-|
B|---------|---------|-----------------------------------------------------------------------------------|
G|-%-------|-%-------|-%----------------%----------------------------------------------------------------|
D|-%-------|-%-------|-%----------------%----------------------------------------------------------------|
A|---------|---------|-----------------------------------------------------------------------------------|
E|---------|---------|-----------------------------------------------------------------------------------|

E|-20-20-20-20-17-17-17-17-19-19-19-19-------------17-17-17-17-19-19-19-19-20-20-20-20------|
B|-------------------------------------20-20-20-20------------------------------------------|
G|-------------------------------------------------------------------------------------21---|
D|------------------------------------------------------------------------------------------|
A|------------------------------------------------------------------------------------------|
E|------------------------------------------------------------------------------------------|

E|-22---24-------24------24--22--24--22-------------------|-------------------|-------------------------------|
B|---------------------------------------24--22-----------|-------------------|-------------------------------|
G|-----------%-------%---------------------------24--21---|-9-------9-----%---|------------%---5------5---%---|
D|-----------%-------%------------------------------------|-9-------9-----%---|-5------5---%---5------5---%---|
A|--------------------------------------------------------|-7-------7---------|-5------5-------3------3-------|
E|--------------------------------------------------------|-------------------|-3------3----------------------|

E|-------------------|-------------------------------|-------------------|-------------------------------|
B|-------------------|-------------------------------|-------------------|-------------------------------|
G|-2-------2-----%---|-5------5---%--------------%---|-9-------9-----%---|------------%---5------5---%---|
D|-2-------2-----%---|-5------5---%---5------5---%---|-9-------9-----%---|-5------5---%---5------5---%---|
A|-0-------0---------|-3------3-------5------5-------|-7-------7---------|-5------5-------3------3-------|
E|-------------------|----------------3------3-------|-------------------|-3------3----------------------|

E|-------------------|-------------------------------|-------------------|-------------------|
B|-------------------|-------------------------------|-------------------|-------------------|
G|-7-------7-----%---|------------%--------------%---|---------------%---|---------------%---|
D|-7-------7-----%---|-5------5---%---7------7---%---|-5-------5-----%---|-7-------7-----%---|
A|-5-------5---------|-5------5-------7------7-------|-5-------5---------|-7-------7---------|
E|-------------------|-3------3-------5------5-------|-3-------3---------|-5-------5---------|

E|-------------------|-------------------|-------------------|-------------------|----------------------------------------------|
B|-------------------|-------------------|-------------------|-------------------|----------------------------------------------|
G|---------------%---|-2-------2-----%---|---------------%---|-2-------2-----%---|-4------4---%---6-----6--%--%--7-----7--%--%--|
D|-5-------5-----%---|-2-------2-----%---|-5-------5-----%---|-2-------2-----%---|-4------4---%---6-----6--%--%--7-----7--%--%--|
A|-5-------5---------|-0-------0---------|-5-------5---------|-0-------0---------|-2------2-------4-----4--------5-----5--------|
E|-3-------3---------|-------------------|-3-------3---------|-------------------|----------------------------------------------|

E|----------------------------------------------|----------------------------------------------|
B|----------------------------------------------|----------------------------------------------|
G|------------%---9-----9--%--%--9-----9--%--%--|-4------4---%---6-----6--%--%--7-----7--%--%--|
D|-5------5---%---9-----9--%--%--9-----9--%--%--|-4------4---%---6-----6--%--%--7-----7--%--%--|
A|-5------5-------7-----7--------7-----7--------|-2------2-------4-----4--------5-----5--------|
E|-3------3-------------------------------------|----------------------------------------------|

E|----------------------------------------------|----------------------------------------------|
B|----------------------------------------------|----------------------------------------------|
G|------------%---9-----9--%--%--9-----9--%--%--|-4------4---%---6-----6--%--%--7-----7--%--%--|
D|-5------5---%---9-----9--%--%--9-----9--%--%--|-4------4---%---6-----6--%--%--7-----7--%--%--|
A|-5------5-------7-----7--------7-----7--------|-2------2-------4-----4--------5-----5--------|
E|-3------3-------------------------------------|----------------------------------------------|

E|----------------------------------------------|----------------------------------------------|
B|----------------------------------------------|----------------------------------------------|
G|------------%---9-----9--%--%--9-----9--%--%--|-4------4---%---6-----6--%--%--7-----7--%--%--|
D|-5------5---%---9-----9--%--%--9-----9--%--%--|-4------4---%---6-----6--%--%--7-----7--%--%--|
A|-5------5-------7-----7--------7-----7--------|-2------2-------4-----4--------5-----5--------|
E|-3------3-------------------------------------|----------------------------------------------|

E|----------------------------|-----------------------------------------------------|
B|----------------------------|-----------------------------------------------------|
G|----------------%------%----|-----------------------------------------------------|
D|-5----5----5----%------%----|-4------------4------------4------------4------------|
A|-5----5----5----------------|-2----2---2---2----2---2---2----2---2---2----2---2---|
E|-3----3----3----------------|-----------------------------------------------------|

E|-----------------------------------------------------|-----------------------------------------------------|
B|-----------------------------------------------------|-----------------------------------------------------|
G|-----------------------------------------------------|-----------------------------------------------------|
D|-4------------4------------4------------4------------|-----------------------------------------------------|
A|-2----2---2---2----2---2---2----2---2---2------------|-5------------5------------5------------5------------|
E|---------------------------------------------3---3---|-3----3---3---3----3---3---3----3---3---3----3---3---|

E|-----------------------------------------------------|-----------------------------------------------------|
B|-----------------------------------------------------|-----------------------------------------------------|
G|-----------------------------------------------------|-----------------------------------------------------|
D|-----------------------------------------------------|-----------------------------------------------------|
A|-5------------5------------5------------5------------|-2------------2------------2------------2------------|
E|-3----3---3---3----3---3---3----3---3---3----0---0---|-0----0---0---0----0---0---0----0---0---0----0---0---|

E|-----------------------------------------------------|-----------------------------------------------------|
B|-----------------------------------------------------|-----------------------------------------------------|
G|-----------------------------------------------------|-----------------------------------------------------|
D|-----------------------------------------------------|-----------------------------------------------------|
A|-2------------2------------2------------2------------|-4------------4------------4------------4------------|
E|-0----0---0---0----0---0---0----0---0---0----2---2---|-2----2---2---2----2---2---2----2---2---2----2---2---|

E|-----------------------------------------------------|-----------------------------------------------------|
B|-----------------------------------------------------|-----------------------------------------------------|
G|-----------------------------------------------------|-----------------------------------------------------|
D|-----------------------------------------------------|-4------------4------------4------------4------------|
A|-4------------4------------4------------4------------|-2----2---2---2----2---2---2----2---2---2----2---2---|
E|-2----2---2---2----2---2---2----2---2---2----2---2---|-----------------------------------------------------|

E|-----------------------------------------------------|-----------------------------------------------------|
B|-----------------------------------------------------|-----------------------------------------------------|
G|-----------------------------------------------------|-----------------------------------------------------|
D|-4------------4------------4------------4------------|-----------------------------------------------------|
A|-2----2---2---2----2---2---2----2---2---2------------|-5------------5------------5------------5------------|
E|---------------------------------------------3---3---|-3----3---3---3----3---3---3----3---3---3----3---3---|

E|-----------------------------------------------------|-----------------------------------------------------|
B|-----------------------------------------------------|-----------------------------------------------------|
G|-----------------------------------------------------|-----------------------------------------------------|
D|-----------------------------------------------------|-----------------------------------------------------|
A|-5------------5------------5------------5------------|-2------------2------------2------------2------------|
E|-3----3---3---3----3---3---3----3---3---3----0---0---|-0----0---0---0----0---0---0----0---0---0----0---0---|

E|-----------------------------------------------------|-----------------------------------------------------|
B|-----------------------------------------------------|-----------------------------------------------------|
G|-----------------------------------------------------|-----------------------------------------------------|
D|-----------------------------------------------------|-----------------------------------------------------|
A|-2------------2------------2------------2------------|-4------------4------------4------------4------------|
E|-0----0---0---0----0---0---0----0---0---0----2---2---|-2----2---2---2----2---2---2----2---2---2----2---2---|

E|-----------------------------------------------------|-----------------------12---|
B|-----------------------------------------------------|-12-----12--------15--------|
G|-----------------------------------------------------|--------------%-------------|
D|-----------------------------------------------------|--------------%-------------|
A|-4------------4------------4------------4------------|----------------------------|
E|-2----2---2---2----2---2---2----2---2---2----2---2---|----------------------------|

E|-12----12-------12----12----------------------12----12-------|-----------------------12---|
B|-------------------------------15----15----------------------|-12-----12--------15--------|
G|----------%--%-----------%--%-----------%--%-----------%--%--|--------------%-------------|
D|----------%--%-----------%--%-----------%--%-----------%--%--|--------------%-------------|
A|-------------------------------------------------------------|----------------------------|
E|-------------------------------------------------------------|----------------------------|

E|-12----12-------12----12----------------------12----12-------|-----------------------12---|
B|-------------------------------15----15----------------------|-12-----12--------15--------|
G|----------%--%-----------%--%-----------%--%-----------%--%--|--------------%-------------|
D|----------%--%-----------%--%-----------%--%-----------%--%--|--------------%-------------|
A|-------------------------------------------------------------|----------------------------|
E|-------------------------------------------------------------|----------------------------|

E|-12----12-------12----12----------------------12----12-------|---------|-------------------|
B|-------------------------------15----15----------------------|-14------|-14------14--------|
G|----------%--%-----------%--%-----------%--%-----------%--%--|---------|---------------%---|
D|----------%--%-----------%--%-----------%--%-----------%--%--|---------|---------------%---|
A|-------------------------------------------------------------|---------|-------------------|
E|-------------------------------------------------------------|---------|-------------------|

E|-----------------------12---|-12----12-------12----12----------------------12----12-------|
B|-12-----12--------15--------|-------------------------------15----15----------------------|
G|--------------%-------------|----------%--%-----------%--%-----------%--%-----------%--%--|
D|--------------%-------------|----------%--%-----------%--%-----------%--%-----------%--%--|
A|----------------------------|-------------------------------------------------------------|
E|----------------------------|-------------------------------------------------------------|

E|-----------------------12---|-12----12-------12----12----------------------12----12-------|
B|-12-----12--------15--------|-------------------------------15----15----------------------|
G|--------------%-------------|----------%--%-----------%--%-----------%--%-----------%--%--|
D|--------------%-------------|----------%--%-----------%--%-----------%--%-----------%--%--|
A|----------------------------|-------------------------------------------------------------|
E|----------------------------|-------------------------------------------------------------|

E|-----------------------12---|-12----12-------12----12----------------------12----12-------|
B|-12-----12--------15--------|-------------------------------15----15----------------------|
G|--------------%-------------|----------%--%-----------%--%-----------%--%-----------%--%--|
D|--------------%-------------|----------%--%-----------%--%-----------%--%-----------%--%--|
A|----------------------------|-------------------------------------------------------------|
E|----------------------------|-------------------------------------------------------------|

E|---------|-------------------------------12-------------|------12--------------------|
B|-14------|-14----14-------12---14---15--------15---15---|-15--------15---14---15-----|
G|---------|----------%--%--------------------------------|----------------------------|
D|---------|----------%--%--------------------------------|----------------------------|
A|---------|----------------------------------------------|----------------------------|
E|---------|----------------------------------------------|----------------------------|

E|-------------------------------12-------------|------12--------------------|-------------------------------12-------------|
B|-15----15-------12---14---15--------15---15---|-15--------15---14---15-----|-15----15-------12---14---15--------15---15---|
G|----------%--%--------------------------------|----------------------------|----------%--%--------------------------------|
D|----------%--%--------------------------------|----------------------------|----------%--%--------------------------------|
A|----------------------------------------------|----------------------------|----------------------------------------------|
E|----------------------------------------------|----------------------------|----------------------------------------------|

E|------12--------------------|-------------------------------12-------------|------12--------------------|
B|-15--------15---14---15-----|-15----15-------12---14---15--------15---15---|-15--------15---14---14-----|
G|----------------------------|----------%--%--------------------------------|----------------------------|
D|----------------------------|----------%--%--------------------------------|----------------------------|
A|----------------------------|----------------------------------------------|----------------------------|
E|----------------------------|----------------------------------------------|----------------------------|

E|-------------------------------12-------------|------12--------------------|-------------------------------12-------------|
B|-14----14-------12---14---15--------15---15---|-15--------15---14---15-----|-15----15-------12---14---15--------15---15---|
G|----------%--%--------------------------------|----------------------------|----------%--%--------------------------------|
D|----------%--%--------------------------------|----------------------------|----------%--%--------------------------------|
A|----------------------------------------------|----------------------------|----------------------------------------------|
E|----------------------------------------------|----------------------------|----------------------------------------------|

E|------12--------------------|-------------------------------12-------------|------12--------------------|
B|-15--------15---14---15-----|-15----15-------12---14---15--------15---15---|-15--------15---14---15-----|
G|----------------------------|----------%--%--------------------------------|----------------------------|
D|----------------------------|----------%--%--------------------------------|----------------------------|
A|----------------------------|----------------------------------------------|----------------------------|
E|----------------------------|----------------------------------------------|----------------------------|

E|-------------------------------12--------14---|-14---15---14---12---14-----|-14------14--------|
B|-15----15-------12---14---15--------15--------|----------------------------|-------------------|
G|----------%--%--------------------------------|----------------------------|---------------%---|
D|----------%--%--------------------------------|----------------------------|---------------%---|
A|----------------------------------------------|----------------------------|-------------------|
E|----------------------------------------------|----------------------------|-------------------|

E|-----------------------------------------------------|-----------------------------------------------------|
B|-----------------------------------------------------|-----------------------------------------------------|
G|-----------------------------------------------------|-----------------------------------------------------|
D|-4------------4------------4------------4------------|-4------------4------------4------------4------------|
A|-2----2---2---2----2---2---2----2---2---2----2---2---|-2----2---2---2----2---2---2----2---2---2------------|
E|-----------------------------------------------------|---------------------------------------------3---3---|

E|-----------------------------------------------------|-----------------------------------------------------|
B|-----------------------------------------------------|-----------------------------------------------------|
G|-----------------------------------------------------|-----------------------------------------------------|
D|-----------------------------------------------------|-----------------------------------------------------|
A|-5------------5------------5------------5------------|-5------------5------------5------------5------------|
E|-3----3---3---3----3---3---3----3---3---3----3---3---|-3----3---3---3----3---3---3----3---3---3----0---0---|

E|-----------------------------------------------------|-----------------------------------------------------|
B|-----------------------------------------------------|-----------------------------------------------------|
G|-----------------------------------------------------|-----------------------------------------------------|
D|-----------------------------------------------------|-----------------------------------------------------|
A|-2------------2------------2------------2------------|-2------------2------------2------------2------------|
E|-0----0---0---0----0---0---0----0---0---0----0---0---|-0----0---0---0----0---0---0----0---0---0----2---2---|

E|-----------------------------------------------------|-----------------------------------------------------|
B|-----------------------------------------------------|-----------------------------------------------------|
G|-----------------------------------------------------|-----------------------------------------------------|
D|-----------------------------------------------------|-----------------------------------------------------|
A|-4------------4------------4------------4------------|-4------------4------------4------------4------------|
E|-2----2---2---2----2---2---2----2---2---2----2---2---|-2----2---2---2----2---2---2----2---2---2----2---2---|

E|-----------------------------------------------------|-----------------------------------------------------|
B|-----------------------------------------------------|-----------------------------------------------------|
G|-----------------------------------------------------|-----------------------------------------------------|
D|-4------------4------------4------------4------------|-4------------4------------4------------4------------|
A|-2----2---2---2----2---2---2----2---2---2----2---2---|-2----2---2---2----2---2---2----2---2---2------------|
E|-----------------------------------------------------|---------------------------------------------3---3---|

E|-----------------------------------------------------|-----------------------------------------------------|
B|-----------------------------------------------------|-----------------------------------------------------|
G|-----------------------------------------------------|-----------------------------------------------------|
D|-----------------------------------------------------|-----------------------------------------------------|
A|-5------------5------------5------------5------------|-5------------5------------5------------5------------|
E|-3----3---3---3----3---3---3----3---3---3----3---3---|-3----3---3---3----3---3---3----3---3---3----0---0---|

E|-----------------------------------------------------|-----------------------------------------------------|
B|-----------------------------------------------------|-----------------------------------------------------|
G|-----------------------------------------------------|-----------------------------------------------------|
D|-----------------------------------------------------|-----------------------------------------------------|
A|-2------------2------------2------------2------------|-2------------2------------2------------2------------|
E|-0----0---0---0----0---0---0----0---0---0----0---0---|-0----0---0---0----0---0---0----0---0---0----2---2---|

E|-----------------------------------------------------|-----------------------------------------------------|
B|-----------------------------------------------------|-----------------------------------------------------|
G|-----------------------------------------------------|-----------------------------------------------------|
D|-----------------------------------------------------|-----------------------------------------------------|
A|-4------------4------------4------------4------------|-4------------4------------4------------4------------|
E|-2----2---2---2----2---2---2----2---2---2----2---2---|-2----2---2---2----2---2---2----2---2---2----2---2---|

E|-----------------------------------------------------|-----------------------------------------------------|
B|-----------------------------------------------------|-----------------------------------------------------|
G|-----------------------------------------------------|-----------------------------------------------------|
D|-4------------4------------4------------4------------|-4------------4------------4------------4------------|
A|-2----2---2---2----2---2---2----2---2---2----2---2---|-2----2---2---2----2---2---2----2---2---2------------|
E|-----------------------------------------------------|---------------------------------------------3---3---|

E|-----------------------------------------------------|-----------------------------------------------------|
B|-----------------------------------------------------|-----------------------------------------------------|
G|-----------------------------------------------------|-----------------------------------------------------|
D|-----------------------------------------------------|-----------------------------------------------------|
A|-5------------5------------5------------5------------|-5------------5------------5------------5------------|
E|-3----3---3---3----3---3---3----3---3---3----3---3---|-3----3---3---3----3---3---3----3---3---3----0---0---|

E|-----------------------------------------------------|-----------------------------------------------------|
B|-----------------------------------------------------|-----------------------------------------------------|
G|-----------------------------------------------------|-----------------------------------------------------|
D|-----------------------------------------------------|-----------------------------------------------------|
A|-2------------2------------2------------2------------|-2------------2------------2------------2------------|
E|-0----0---0---0----0---0---0----0---0---0----0---0---|-0----0---0---0----0---0---0----0---0---0----2---2---|

E|-----------------------------------------------------|-----------------------------------------------------|
B|-----------------------------------------------------|-----------------------------------------------------|
G|-----------------------------------------------------|-----------------------------------------------------|
D|-----------------------------------------------------|-----------------------------------------------------|
A|-4------------4------------4------------4------------|-4------------4------------4------------4------------|
E|-2----2---2---2----2---2---2----2---2---2----2---2---|-2----2---2---2----2---2---2----2---2---2----2---2---|

E|-------------------|
B|-------------------|
G|-4-------4-----%---|
D|-4-------4-----%---|
A|-2-------2---------|
E|-------------------|
Iron Maiden - When Two Worlds Collide
Iron Maiden - When Two Worlds Collide.gp3