Iron Maiden - Where Eagles Dare (2)

Iron Maiden



Title: Where Eagles Dare
Album: 
Artist: Iron Maiden
Author: 

Track 1: Guitar
E|-------------------------------------------------------------|-------------------------------------------------------------|
B|-------------------------------------------------------------|-------------------------------------------------------------|
G|----------------9----9----9-------------------7----7----7----|----------------5----5----5----------------------------------|
D|----------------9----9----9-------------------7----7----7----|----------------5----5----5----------------------------------|
A|----------------7----7----7-------------------5----5----5----|----------------3----3----3----3----3----3----3----2---------|
E|-0----0----0-------------------0----0----0-------------------|-0----0----0--------------------------------------------0----|

E|-------------------------------------------------------------|-------------------------------------------------------------|
B|-------------------------------------------------------------|-------------------------------------------------------------|
G|----------------4----4----4-------------------4----4----4----|----------------5----5----5-------------------5----5----5----|
D|----------------4----4----4-------------------4----4----4----|----------------5----5----5-------------------5----5----5----|
A|-2----2----2----2----2----2----2----2----2----2----2----2----|-3----3----3----3----3----3----3----3----3----3----3----3----|
E|-------------------------------------------------------------|-------------------------------------------------------------|

E|-------------------------------------------------------------|-------------------------------------|
B|-------------------------------------------------------------|-------------------------------------|
G|----------------4----4----4-------------------4----4----4----|-5-----5-----5-----7-----7-----7-----|
D|----------------4----4----4-------------------4----4----4----|-5-----5-----5-----7-----7-----7-----|
A|-2----2----2----2----2----2----2----2----2----2----2----2----|-3-----3-----3-----5-----5-----5-----|
E|-------------------------------------------------------------|-------------------------------------|

E|-------------------------------------------------------------|-------------------------------------------------------------|
B|-------------------------------------------------------------|-------------------------------------------------------------|
G|----------------9----9----9-------------------7----7----7----|----------------5----5----5----------------------------------|
D|----------------9----9----9-------------------7----7----7----|----------------5----5----5----------------------------------|
A|----------------7----7----7-------------------5----5----5----|----------------3----3----3----3----3----3----3----2---------|
E|-0----0----0-------------------0----0----0-------------------|-0----0----0--------------------------------------------0----|

E|-------------------------------------------------|-------------------------------------------------|
B|-------------------------------------------------|-------------------------------------------------|
G|-------------------------------------------------|-------------------------------------------------|
D|-------------------------------------------------|-------------------------------------------------|
A|-------------------------------7-----9-----9-----|-2----2----2----2----2----2----3-----2-----------|
E|-0----0----0----0----0----0----5-----7-----7-----|-0----0----0----0----0----0----------------0-----|

E|-------------------------------------------------------------|-------------------------------------------------------------|
B|-------------------------------------------------------------|-------------------------------------------------------------|
G|----------------9----9----9-------------------7----7----7----|----------------5----5----5----------------------------------|
D|----------------9----9----9-------------------7----7----7----|----------------5----5----5----------------------------------|
A|----------------7----7----7-------------------5----5----5----|----------------3----3----3----3----3----3----3----2---------|
E|-0----0----0-------------------0----0----0-------------------|-0----0----0--------------------------------------------0----|

E|-------------------------------------------------|-------------------------------------------------|
B|-------------------------------------------------|-------------------------------------------------|
G|-------------------------------------------------|-------------------------------------------------|
D|-------------------------------------------------|-------------------------------------------------|
A|-------------------------------7-----9-----9-----|-2----2----2----2----2----2----3-----2-----------|
E|-0----0----0----0----0----0----5-----7-----7-----|-0----0----0----0----0----0----------------0-----|

E|-------------------------------------------------------------|-------------------------------------------------------------|
B|-------------------------------------------------------------|-------------------------------------------------------------|
G|-5----5----5-------------------5----5----5-------------------|-7----7----7-------------------7----7----7-------------------|
D|-5----5----5----5----5----5----5----5----5----5----7----9----|-7----7----7----7----7----7----7----7----7----7----7----7----|
A|-3----3----3----3----3----3----3----3----3----3----5----7----|-5----5----5----5----5----5----5----5----5----5----5----5----|
E|-------------------------------------------------------------|-------------------------------------------------------------|

E|-------------------------------------------------|-------------------------------------------------------------|
B|-------------------------------------------------|-------------------------------------------------------------|
G|-------------------------------------------------|-------------------------------5----5----5----7----7----7----|
D|-7----7----7----7----7----7----4-----5-----7-----|-4----4----4----4----4----4----5----5----5----7----7----7----|
A|-5----5----5----5----5----5----2-----3-----5-----|-2----2----2----2----2----2----3----3----3----5----5----5----|
E|-------------------------------------------------|-------------------------------------------------------------|

E|-------------------------------------------------------------|-------------------------------------------------------------|
B|-------------------------------------------------------------|-------------------------------------------------------------|
G|----------------9----9----9-------------------7----7----7----|----------------5----5----5----------------------------------|
D|----------------9----9----9-------------------7----7----7----|----------------5----5----5----------------------------------|
A|----------------7----7----7-------------------5----5----5----|----------------3----3----3----3----3----3----3----2---------|
E|-0----0----0-------------------0----0----0-------------------|-0----0----0--------------------------------------------0----|

E|--------------------------------------|-------------------------------------------|
B|--------------------------------------|-------------------------------------------|
G|-9----9----9----9---------------------|-9----9----9----9-----7----7----7----7-----|
D|-9----9----9----9---------------------|-9----9----9----9-----7----7----7----7-----|
A|-7----7----7----7---------------------|-7----7----7----7-----5----5----5----5-----|
E|-----------------------0----0----0----|-------------------------------------------|

E|--------------------------------------|-------------------------------------------|
B|--------------------------------------|-------------------------------------------|
G|-9----9----9----9---------------------|-9----9----9----9-----7----7----7----7-----|
D|-9----9----9----9---------------------|-9----9----9----9-----7----7----7----7-----|
A|-7----7----7----7---------------------|-7----7----7----7-----5----5----5----5-----|
E|-----------------------0----0----0----|-------------------------------------------|

E|--------------------------------------|-------------------------------------------|
B|--------------------------------------|-------------------------------------------|
G|-7----7----7----7---------------------|-7----7----7----7-----4----4----4----7-----|
D|-7----7----7----7---------------------|-7----7----7----7-----4----4----4----7-----|
A|-5----5----5----5---------------------|-5----5----5----5-----2----2----2----5-----|
E|-----------------------0----0----0----|-------------------------------------------|

E|--------------------------------------|-------------------------------------------|
B|--------------------------------------|-------------------------------------------|
G|-9----9----9----9---------------------|-9----9----9----9-----7----7----7----7-----|
D|-9----9----9----9---------------------|-9----9----9----9-----7----7----7----7-----|
A|-7----7----7----7---------------------|-7----7----7----7-----5----5----5----5-----|
E|-----------------------0----0----0----|-------------------------------------------|

E|--------------------------------------|-------------------------------------------|
B|--------------------------------------|-------------------------------------------|
G|-9----9----9----9---------------------|-9----9----9----9-----7----7----7----7-----|
D|-9----9----9----9---------------------|-9----9----9----9-----7----7----7----7-----|
A|-7----7----7----7---------------------|-7----7----7----7-----5----5----5----5-----|
E|-----------------------0----0----0----|-------------------------------------------|

E|--------------------------------------|-------------------------------------------|
B|--------------------------------------|-------------------------------------------|
G|-9----9----9----9---------------------|-9----9----9----9-----7----7----7----7-----|
D|-9----9----9----9---------------------|-9----9----9----9-----7----7----7----7-----|
A|-7----7----7----7---------------------|-7----7----7----7-----5----5----5----5-----|
E|-----------------------0----0----0----|-------------------------------------------|

E|--------------------------------------|-------------------------------------------|
B|--------------------------------------|-------------------------------------------|
G|-7----7----7----7---------------------|-7----7----7----7-----4----4----4----7-----|
D|-7----7----7----7---------------------|-7----7----7----7-----4----4----4----7-----|
A|-5----5----5----5---------------------|-5----5----5----5-----2----2----2----5-----|
E|-----------------------0----0----0----|-------------------------------------------|

E|--------------------------------------|-------------------------------------------|
B|--------------------------------------|-------------------------------------------|
G|-9----9----9----9---------------------|-9----9----9----9-----7----7----7----7-----|
D|-9----9----9----9---------------------|-9----9----9----9-----7----7----7----7-----|
A|-7----7----7----7---------------------|-7----7----7----7-----5----5----5----5-----|
E|-----------------------0----0----0----|-------------------------------------------|

E|--------------------------------------|-------------------------------------------|
B|--------------------------------------|-------------------------------------------|
G|-9----9----9----9---------------------|-9----9----9----9-----7----7----7----7-----|
D|-9----9----9----9---------------------|-9----9----9----9-----7----7----7----7-----|
A|-7----7----7----7---------------------|-7----7----7----7-----5----5----5----5-----|
E|-----------------------0----0----0----|-------------------------------------------|

E|--------------------------------------|-------------------------------------------|
B|--------------------------------------|-------------------------------------------|
G|-9----9----9----9---------------------|-9----9----9----9-----7----7----7----7-----|
D|-9----9----9----9---------------------|-9----9----9----9-----7----7----7----7-----|
A|-7----7----7----7---------------------|-7----7----7----7-----5----5----5----5-----|
E|-----------------------0----0----0----|-------------------------------------------|

E|--------------------------------------|-------------------------------------------|
B|--------------------------------------|-------------------------------------------|
G|-7----7----7----7---------------------|-7----7----7----7-----4----4----4----7-----|
D|-7----7----7----7---------------------|-7----7----7----7-----4----4----4----7-----|
A|-5----5----5----5---------------------|-5----5----5----5-----2----2----2----5-----|
E|-----------------------0----0----0----|-------------------------------------------|

E|--------------------------------------|-------------------------------------------|
B|--------------------------------------|-------------------------------------------|
G|-9----9----9----9---------------------|-9----9----9----9-----7----7----7----7-----|
D|-9----9----9----9---------------------|-9----9----9----9-----7----7----7----7-----|
A|-7----7----7----7---------------------|-7----7----7----7-----5----5----5----5-----|
E|-----------------------0----0----0----|-------------------------------------------|

E|---------|---------|------------------------|---------|------------------------|---------|
B|---------|---------|------------------------|---------|------------------------|---------|
G|---------|---------|------------------------|---------|------------------------|---------|
D|-2-------|-2-------|-2-----2----2----5------|-5-------|-5------5-----5----5----|-2-------|
A|-2-------|-2-------|-2-----2----2----5------|-5-------|-5------5-----5----5----|-2-------|
E|-0-------|-0-------|-0-----0----0----3------|-3-------|-3------3-----3----3----|-0-------|

E|---------|------------------------|---------|------------------------|
B|---------|------------------------|---------|------------------------|
G|---------|------------------------|---------|------------------------|
D|-2-------|-2-----2----2----5------|-5-------|-5------5-----5----5----|
A|-2-------|-2-----2----2----5------|-5-------|-5------5-----5----5----|
E|-0-------|-0-----0----0----3------|-3-------|-3------3-----3----3----|
Iron Maiden - Where Eagles Dare (2)
Iron Maiden - Where Eagles Dare (2).gp3