Iron Maiden - Wickerman (Bass)

Iron Maiden



Title: Wickerman
Album: Brave New World
Artist: Iron Maiden
Author: 

Track 1: Harris
G|---------|---------|-----------------------------------------|-----------------------------------------|
D|-%-------|-%-------|-----------%----%--------------%----%----|-----------%----%------------------------|
A|-%-------|-%-------|-7----7----%----%----7----7----%----%----|-7----7----%----%----3----3----10---10---|
E|---------|---------|-----------------------------------------|-----------------------------------------|

G|-----------------------------------------------------|-----------------------------------------------|
D|-9----9--------------------9----9--------------------|-9----9----------------------------------------|
A|-7----7----7---7---7---7---7----7----7---7---7---7---|-7----7----7---7---7---7---3----3----10---10---|
E|-----------------------------------------------------|-----------------------------------------------|

G|-----------------------------------------------------|-----------------------------------------------|
D|-9----9--------------------9----9--------------------|-9----9----------------------------------------|
A|-7----7----7---7---7---7---7----7----7---7---7---7---|-7----7----7---7---7---7---3----3----10---10---|
E|-----------------------------------------------------|-----------------------------------------------|

G|-----------------------------------------------------|-----------------------------------------------|
D|-9----9--------------------9----9--------------------|-9----9----------------------------------------|
A|-7----7----7---7---7---7---7----7----7---7---7---7---|-7----7----7---7---7---7---3----3----10---10---|
E|-----------------------------------------------------|-----------------------------------------------|

G|-----------------------------------------------------|-----------------------------------------------|
D|-9----9--------------------9----9--------------------|-9----9----------------------------------------|
A|-7----7----7---7---7---7---7----7----7---7---7---7---|-7----7----7---7---7---7---3----3----10---10---|
E|-----------------------------------------------------|-----------------------------------------------|

G|-----------------------------------------------------|-----------------------------------------------|
D|-9----9--------------------9----9--------------------|-9----9----------------------------------------|
A|-7----7----7---7---7---7---7----7----7---7---7---7---|-7----7----7---7---7---7---3----3----10---10---|
E|-----------------------------------------------------|-----------------------------------------------|

G|-----------------------------------------------------|-----------------------------------------------|
D|-9----9--------------------9----9--------------------|-9----9----------------------------------------|
A|-7----7----7---7---7---7---7----7----7---7---7---7---|-7----7----7---7---7---7---3----3----10---10---|
E|-----------------------------------------------------|-----------------------------------------------|

G|-----------------------------------------|-----------------------------------------------|
D|-7---------------------------------------|-5---------------------------------------------|
A|-5----5----5----5----5----5----5----5----|-3----3----3----3----10--10--10--9----7---7----|
E|-----------------------------------------|-----------------------------------------------|

G|-----------------------------------------|-----------------------------------------|
D|-7---------------------------------------|-5---------------------------------------|
A|-5----5----5----5----5----5----5----5----|-3----3----3----3--------------3----3----|
E|-----------------------------------------|---------------------3----3--------------|

G|-----------------------------------------|-----------------------------------------------|
D|-7---------------------------------------|-5---------------------------------------------|
A|-5----5----5----5----5----5----5----5----|-3----3----3----3----10--10--10--9----7---7----|
E|-----------------------------------------|-----------------------------------------------|

G|-----------------------------------------|-----------------------------------------|
D|-7---------------------------------------|-5---------------------------------------|
A|-5----5----5----5----5----5----5----5----|-3----3----3----3--------------3----3----|
E|-----------------------------------------|---------------------3----3--------------|

G|-----------------------------------------------------------------|-----------------------------------------------------------------|
D|-----------------------------------------------------------------|-----------------------------------------------------------------|
A|-7---7---7---7---7---7---7---7---3---3---3---3---3---3---3---3---|---------------------------------5---5---5---5---5---5---5---5---|
E|-----------------------------------------------------------------|-3---3---3---3---3---3---3---3-----------------------------------|

G|-----------------------------------------------------------------|-----------------------------------------------------------------|
D|-----------------------------------------------------------------|-----------------------------------------------------------------|
A|-7---7---7---7---7---7---7---7---3---3---3---3---3---3---3---3---|---------------------------------5---5---5---5---5---5---5---5---|
E|-----------------------------------------------------------------|-3---3---3---3---3---3---3---3-----------------------------------|

G|-----------------------------------------------------------------|-----------------------------------------------------------------|
D|-----------------------------------------------------------------|-----------------------------------------------------------------|
A|-7---7---7---7---7---7---7---7---3---3---3---3---3---3---3---3---|---------------------------------5---5---5---5---5---5---5---5---|
E|-----------------------------------------------------------------|-3---3---3---3---3---3---3---3-----------------------------------|

G|-----------------------------------------------------------------|-----------------------------------------------------------------|
D|-----------------------------------------------------------------|-----------------------------------------------------------------|
A|-7---7---7---7---7---7---7---7---3---3---3---3---3---3---3---3---|---------------------------------5---5---5---5---5---5---5---5---|
E|-----------------------------------------------------------------|-3---3---3---3---3---3---3---3-----------------------------------|

G|-----------------------------------------------------|-----------------------------------------------|
D|-9----9--------------------9----9--------------------|-9----9----------------------------------------|
A|-7----7----7---7---7---7---7----7----7---7---7---7---|-7----7----7---7---7---7---3----3----10---10---|
E|-----------------------------------------------------|-----------------------------------------------|

G|-----------------------------------------------------|-----------------------------------------------|
D|-9----9--------------------9----9--------------------|-9----9----------------------------------------|
A|-7----7----7---7---7---7---7----7----7---7---7---7---|-7----7----7---7---7---7---3----3----10---10---|
E|-----------------------------------------------------|-----------------------------------------------|

G|-----------------------------------------------------|-----------------------------------------------|
D|-9----9--------------------9----9--------------------|-9----9----------------------------------------|
A|-7----7----7---7---7---7---7----7----7---7---7---7---|-7----7----7---7---7---7---3----3----10---10---|
E|-----------------------------------------------------|-----------------------------------------------|

G|-----------------------------------------------------|-----------------------------------------------|
D|-9----9--------------------9----9--------------------|-9----9----------------------------------------|
A|-7----7----7---7---7---7---7----7----7---7---7---7---|-7----7----7---7---7---7---3----3----10---10---|
E|-----------------------------------------------------|-----------------------------------------------|

G|-----------------------------------------|-----------------------------------------------|
D|-7---------------------------------------|-5---------------------------------------------|
A|-5----5----5----5----5----5----5----5----|-3----3----3----3----10--10--10--9----7---7----|
E|-----------------------------------------|-----------------------------------------------|

G|-----------------------------------------|-----------------------------------------|
D|-7---------------------------------------|-5---------------------------------------|
A|-5----5----5----5----5----5----5----5----|-3----3----3----3--------------3----3----|
E|-----------------------------------------|---------------------3----3--------------|

G|-----------------------------------------|-----------------------------------------------|
D|-7---------------------------------------|-5---------------------------------------------|
A|-5----5----5----5----5----5----5----5----|-3----3----3----3----10--10--10--9----7---7----|
E|-----------------------------------------|-----------------------------------------------|

G|-----------------------------------------|-----------------------------------------|
D|-7---------------------------------------|-5---------------------------------------|
A|-5----5----5----5----5----5----5----5----|-3----3----3----3--------------3----3----|
E|-----------------------------------------|---------------------3----3--------------|

G|-----------------------------------------------------------------|-----------------------------------------------------------------|
D|-----------------------------------------------------------------|-----------------------------------------------------------------|
A|-7---7---7---7---7---7---7---7---3---3---3---3---3---3---3---3---|---------------------------------5---5---5---5---5---5---5---5---|
E|-----------------------------------------------------------------|-3---3---3---3---3---3---3---3-----------------------------------|

G|-----------------------------------------------------------------|-----------------------------------------------------------------|
D|-----------------------------------------------------------------|-----------------------------------------------------------------|
A|-7---7---7---7---7---7---7---7---3---3---3---3---3---3---3---3---|---------------------------------5---5---5---5---5---5---5---5---|
E|-----------------------------------------------------------------|-3---3---3---3---3---3---3---3-----------------------------------|

G|-----------------------------------------------------------------|-----------------------------------------------------------------|
D|-----------------------------------------------------------------|-----------------------------------------------------------------|
A|-7---7---7---7---7---7---7---7---3---3---3---3---3---3---3---3---|---------------------------------5---5---5---5---5---5---5---5---|
E|-----------------------------------------------------------------|-3---3---3---3---3---3---3---3-----------------------------------|

G|-----------------------------------------------------------------|-----------------------------------------------------------------|
D|-----------------------------------------------------------------|-----------------------------------------------------------------|
A|-7---7---7---7---7---7---7---7---3---3---3---3---3---3---3---3---|---------------------------------5---5---5---5---5---5---5---5---|
E|-----------------------------------------------------------------|-3---3---3---3---3---3---3---3-----------------------------------|

G|-----------------------------------------------------------------|--------------------------------------------------------------|
D|-9---------------------------9-----------------------------------|-5------------------------------------------------------------|
A|-7---7---7---7---7---7---7---7---7---7---7---7---7---7---7---7---|-3---3---3---3---3---3---3------------------------------------|
E|-----------------------------------------------------------------|------------------------------3---3---3---3---3---3---3---5---|

G|-----------------------------------------------------------------|--------------------------------------------------------------|
D|-9---------------------------9-----------------------------------|-5------------------------------------------------------------|
A|-7---7---7---7---7---7---7---7---7---7---7---7---7---7---7---7---|-3---3---3---3---3---3---3------------------------------------|
E|-----------------------------------------------------------------|------------------------------3---3---3---3---3---3---3---5---|

G|-----------------------------------------------------------------|--------------------------------------------------------------|
D|-9---------------------------9-----------------------------------|-5------------------------------------------------------------|
A|-7---7---7---7---7---7---7---7---7---7---7---7---7---7---7---7---|-3---3---3---3---3---3---3------------------------------------|
E|-----------------------------------------------------------------|------------------------------3---3---3---3---3---3---3---5---|

G|-----------------------------------------------------------------|--------------------------------------------------------------|
D|-9---------------------------9-----------------------------------|-5------------------------------------------------------------|
A|-7---7---7---7---7---7---7---7---7---7---7---7---7---7---7---7---|-3---3---3---3---3---3---3------------------------------------|
E|-----------------------------------------------------------------|------------------------------3---3---3---3---3---3---3---5---|

G|-----------------------------------------|-----------------------------------------|
D|-----------------------------------------|-----------------------------------------|
A|----------------9-------------------7----|----------------5-------------------7----|
E|-7----7----7----7----5----5----5----5----|-3----3----3----3----5----5----5----5----|

G|-----------------------------------------|-----------------------------------------|
D|-----------------------------------------|-----------------------------------------|
A|----------------9-------------------7----|----------------5-------------------10---|
E|-7----7----7----7----5----5----5----5----|-3----3----3----3----8----8----8----8----|

G|-----------------------------------------|-----------------------------------------|
D|-----------------------------------------|-----------------------------------------|
A|----------------9-------------------7----|----------------5-------------------7----|
E|-7----7----7----7----5----5----5----5----|-3----3----3----3----5----5----5----5----|

G|-----------------------------------------|-----------------------------------------|
D|-----------------------------------------|-----------------------------------------|
A|----------------9-------------------7----|----------------5-------------------10---|
E|-7----7----7----7----5----5----5----5----|-3----3----3----3----8----8----8----8----|

G|-----------------------------------------------------------------|--------------------------------------------------------------|
D|-9---------------------------9-----------------------------------|-5------------------------------------------------------------|
A|-7---7---7---7---7---7---7---7---7---7---7---7---7---7---7---7---|-3---3---3---3---3---3---3------------------------------------|
E|-----------------------------------------------------------------|------------------------------3---3---3---3---3---3---3---5---|

G|-----------------------------------------------------------------|--------------------------------------------------------------|
D|-9---------------------------9-----------------------------------|-5------------------------------------------------------------|
A|-7---7---7---7---7---7---7---7---7---7---7---7---7---7---7---7---|-3---3---3---3---3---3---3------------------------------------|
E|-----------------------------------------------------------------|------------------------------3---3---3---3---3---3---3---5---|

G|-----------------------------------------------------------------|--------------------------------------------------------------|
D|-9---------------------------9-----------------------------------|-5------------------------------------------------------------|
A|-7---7---7---7---7---7---7---7---7---7---7---7---7---7---7---7---|-3---3---3---3---3---3---3------------------------------------|
E|-----------------------------------------------------------------|------------------------------3---3---3---3---3---3---3---5---|

G|-----------------------------------------------------------------|--------------------------------------------------------------|
D|-9---------------------------9-----------------------------------|-5------------------------------------------------------------|
A|-7---7---7---7---7---7---7---7---7---7---7---7---7---7---7---7---|-3---3---3---3---3---3---3------------------------------------|
E|-----------------------------------------------------------------|------------------------------3---3---3---3---3---3---3---5---|

G|-----------------------------------------------------------------|-----------------------------------------------------------------|
D|-----------------------------------------------------------------|-----------------------------------------------------------------|
A|-7---7---7---7---7---7---7---7---3---3---3---3---3---3---3---3---|---------------------------------5---5---5---5---5---5---5---5---|
E|-----------------------------------------------------------------|-3---3---3---3---3---3---3---3-----------------------------------|

G|-----------------------------------------------------------------|-----------------------------------------------------------------|
D|-----------------------------------------------------------------|-----------------------------------------------------------------|
A|-7---7---7---7---7---7---7---7---3---3---3---3---3---3---3---3---|---------------------------------5---5---5---5---5---5---5---5---|
E|-----------------------------------------------------------------|-3---3---3---3---3---3---3---3-----------------------------------|

G|-----------------------------------------------------------------|-----------------------------------------------------------------|
D|-----------------------------------------------------------------|-----------------------------------------------------------------|
A|-7---7---7---7---7---7---7---7---3---3---3---3---3---3---3---3---|---------------------------------5---5---5---5---5---5---5---5---|
E|-----------------------------------------------------------------|-3---3---3---3---3---3---3---3-----------------------------------|

G|-----------------------------------------------------------------|-----------------------------------------------------------------|
D|-----------------------------------------------------------------|-----------------------------------------------------------------|
A|-7---7---7---7---7---7---7---7---3---3---3---3---3---3---3---3---|---------------------------------5---5---5---5---5---5---5---5---|
E|-----------------------------------------------------------------|-3---3---3---3---3---3---3---3-----------------------------------|

G|-----------------------------------------|-----------------------------------------|
D|-----------------------------------------|-----------------------------------------|
A|-7----7----7----7----7----7----7----7----|-3----3----3----3----3----3----3----3----|
E|-----------------------------------------|-----------------------------------------|

G|-----------------------------------------|-----------------------------------------|
D|-----------------------------------------|-----------------------------------------|
A|-----------------------------------------|-5----5----5----5----5----5----5----5----|
E|-3----3----3----3----3----3----3----3----|-----------------------------------------|

G|-----------------------------------------|-----------------------------------------|
D|-----------------------------------------|-----------------------------------------|
A|-7----7----7----7----7----7----7----7----|-3----3----3----3----3----3----3----3----|
E|-----------------------------------------|-----------------------------------------|

G|-----------------------------------------|-----------------------------------------|
D|-----------------------------------------|-----------------------------------------|
A|-----------------------------------------|-5----5----5----5----5----5----5----5----|
E|-3----3----3----3----3----3----3----3----|-----------------------------------------|

G|-----------------------------------------|-----------------------------------------|
D|-----------------------------------------|-----------------------------------------|
A|-7----7----7----7----7----7----7----7----|-3----3----3----3----3----3----3----3----|
E|-----------------------------------------|-----------------------------------------|

G|-----------------------------------------|-------------------------|---------|---------|
D|-----------------------------------------|-------------------------|---------|-%-------|
A|-----------------------------------------|-5-----5-----5-----5-----|-5-------|-%-------|
E|-3----3----3----3----3----3----3----3----|-------------------------|---------|---------|
Iron Maiden - Wickerman (Bass)
Iron Maiden - Wickerman (Bass).gp4