Iron Maiden - Women In Uniform

Iron Maiden - Women In Uniform

Iron Maiden



Title: Women in Uniform
Album: Single
Artist: Iron Maiden
Author: 

Track 1: Overdriven Guitar 1
E|---------|-----------------------------------------------------------|-----------------------------------------------------------|
B|---------|-----------------------------------------------------------|-----------------------------------------------------------|
G|-%-------|------------------%----------------------------%-----------|------------------%----------------------------%-----------|
D|-%-------|-9----------------%-----------11---------------%-----------|-12---------------%-----------11---------------%-----------|
A|---------|-7----X---X---X-------X---X---7----X---X---X-------X---X---|-10---X---X---X-------X---X---7----X---X---X-------X---X---|
E|---------|-0----X---X---0-------0---0---0----X---X---0-------0---0---|-0----X---X---0-------0---0---0----X---X---0-------0---0---|

E|-----------------------------------------------------------|-----------------------------------------------------------|
B|-----------------------------------------------------------|-----------------------------------------------------------|
G|------------------%----------------------------%-----------|------------------%----------------------------%-----------|
D|-9----------------%-----------11---------------%-----------|-12---------------%-----------11---------------%-----------|
A|-7----X---X---X-------X---X---7----X---X---X-------X---X---|-10---X---X---X-------X---X---7----X---X---X-------X---X---|
E|-0----X---X---0-------0---0---0----X---X---0-------0---0---|-0----X---X---0-------0---0---0----X---X---0-------0---0---|

E|----------------------------------------------------|----------------------------------------------------|
B|----------------------------------------------------|----------------------------------------------------|
G|----------------------------------------------------|----------------------------------------------------|
D|------11--9-------9---7-------7---5-------5---5-----|------11--9-------9---7-------7---5-------5---5-----|
A|-0------------0-----------0-----------0-------------|-0------------0-----------0-----------0-------------|
E|----------------------------------------------------|----------------------------------------------------|

E|----------------------------------------------------|----------------------------------------------------|
B|----------------------------------------------------|----------------------------------------------------|
G|----------------------------------------------------|----------------------------------------------------|
D|------11--9-------9---7-------7---5-------5---5-----|------11--9-------9---7-------7---5-------5---5-----|
A|-0------------0-----------0-----------0-------------|-0------------0-----------0-----------0-------------|
E|----------------------------------------------------|----------------------------------------------------|

E|-----------------------------------------------------------|-----------------------------------------------------------|
B|-----------------------------------------------------------|-----------------------------------------------------------|
G|------------------%----------------------------%-----------|------------------%----------------------------%-----------|
D|-9----------------%-----------11---------------%-----------|-12---------------%-----------11---------------%-----------|
A|-7----X---X---X-------X---X---7----X---X---X-------X---X---|-10---X---X---X-------X---X---7----X---X---X-------X---X---|
E|-0----X---X---0-------0---0---0----X---X---0-------0---0---|-0----X---X---0-------0---0---0----X---X---0-------0---0---|

E|-----------------------------------------------------------|-----------------------------------------------------------|
B|-----------------------------------------------------------|-----------------------------------------------------------|
G|------------------%----------------------------%-----------|------------------%----------------------------%-----------|
D|-9----------------%-----------11---------------%-----------|-12---------------%-----------11---------------%-----------|
A|-7----X---X---X-------X---X---7----X---X---X-------X---X---|-10---X---X---X-------X---X---7----X---X---X-------X---X---|
E|-0----X---X---0-------0---0---0----X---X---0-------0---0---|-0----X---X---0-------0---0---0----X---X---0-------0---0---|

E|------5----5---5-------------------------------|------5----5---5-------------------------------|
B|------5----5---5-------------------------------|------5----5---5-------------------------------|
G|------6----6---6--------7----7---6---6----6----|------6----6---6--------7----7---6---6----6----|
D|-7-----------------7----5----5---7---7----7----|-7-----------------7----5----5---7---7----7----|
A|-7-----------------7----7----7---7---7----7----|-7-----------------7----7----7---7---7----7----|
E|-5-----------------5----5----5---5---5----5----|-5-----------------5----5----5---5---5----5----|

E|------5----5---5-------------------------------|------5----5---5-------------------------------|
B|------5----5---5-------------------------------|------5----5---5-------------------------------|
G|------6----6---6--------7----7---6---6----6----|------6----6---6--------7----7---6---6----6----|
D|-7-----------------7----5----5---7---7----7----|-7-----------------7----5----5---7---7----7----|
A|-7-----------------7----7----7---7---7----7----|-7-----------------7----7----7---7---7----7----|
E|-5-----------------5----5----5---5---5----5----|-5-----------------5----5----5---5---5----5----|

E|-----------------------------------------------------------|-----------------------------------------------------------|
B|-----------------------------------------------------------|-----------------------------------------------------------|
G|------------------%----------------------------%-----------|------------------%----------------------------%-----------|
D|-9----------------%-----------11---------------%-----------|-12---------------%-----------11---------------%-----------|
A|-7----X---X---X-------X---X---7----X---X---X-------X---X---|-10---X---X---X-------X---X---7----X---X---X-------X---X---|
E|-0----X---X---0-------0---0---0----X---X---0-------0---0---|-0----X---X---0-------0---0---0----X---X---0-------0---0---|

E|-----------------------------------------------------------|-----------------------------------------------------------|
B|-----------------------------------------------------------|-----------------------------------------------------------|
G|------------------%----------------------------%-----------|------------------%----------------------------%-----------|
D|-9----------------%-----------11---------------%-----------|-12---------------%-----------11---------------%-----------|
A|-7----X---X---X-------X---X---7----X---X---X-------X---X---|-10---X---X---X-------X---X---7----X---X---X-------X---X---|
E|-0----X---X---0-------0---0---0----X---X---0-------0---0---|-0----X---X---0-------0---0---0----X---X---0-------0---0---|

E|-----------------------------------------------------|-----------------------------------------------------|
B|-----------------------------------------------------|-----------------------------------------------------|
G|-7-------------------------4-------------------------|---------------------------7-------------------------|
D|-7-------------------------4-------------------------|-5-------------------------7-------------------------|
A|-5----5---5---5----5---5---2----2---2---2----2---2---|-5-------------------------5----5---5---5----5---5---|
E|-----------------------------------------------------|-3----3---3---3----3---3-----------------------------|

E|-----------------------------------------------------|-----------------------------------------------------------|
B|-----------------------------------------------------|-----------------------------------------------------------|
G|-7-------------------------4-------------------------|-----------------------------------------------------------|
D|-7-------------------------4-------------------------|-2---2---2---2---2---2---2---2---2---2---2---2---2----2----|
A|-5----5---5---5----5---5---2----2---2---2----2---2---|-2---2---2---2---2---2---2---2---2---2---2---2---2----2----|
E|-----------------------------------------------------|-0---0---0---0---0---0---0---0---0---0---0---0---0----0----|

E|------5----5---5-------------------------------|------5----5---5-------------------------------|
B|------5----5---5-------------------------------|------5----5---5-------------------------------|
G|------6----6---6--------7----7---6---6----6----|------6----6---6--------7----7---6---6----6----|
D|-7-----------------7----5----5---7---7----7----|-7-----------------7----5----5---7---7----7----|
A|-7-----------------7----7----7---7---7----7----|-7-----------------7----7----7---7---7----7----|
E|-5-----------------5----5----5---5---5----5----|-5-----------------5----5----5---5---5----5----|

E|------5----5---5-------------------------------|------5----5---5-------------------------------|
B|------5----5---5-------------------------------|------5----5---5-------------------------------|
G|------6----6---6--------7----7---6---6----6----|------6----6---6--------7----7---6---6----6----|
D|-7-----------------7----5----5---7---7----7----|-7-----------------7----5----5---7---7----7----|
A|-7-----------------7----7----7---7---7----7----|-7-----------------7----7----7---7---7----7----|
E|-5-----------------5----5----5---5---5----5----|-5-----------------5----5----5---5---5----5----|

E|------5----5---5-------------------------------|------5----5---5-------------------------------|
B|------5----5---5-------------------------------|------5----5---5-------------------------------|
G|------6----6---6--------7----7---6---6----6----|------6----6---6--------7----7---6---6----6----|
D|-7-----------------7----5----5---7---7----7----|-7-----------------7----5----5---7---7----7----|
A|-7-----------------7----7----7---7---7----7----|-7-----------------7----7----7---7---7----7----|
E|-5-----------------5----5----5---5---5----5----|-5-----------------5----5----5---5---5----5----|

E|------5----5---5-------------------------------|------5----5---5-------------------------------|
B|------5----5---5-------------------------------|------5----5---5-------------------------------|
G|------6----6---6--------7----7---6---6----6----|------6----6---6--------7----7---6---6----6----|
D|-7-----------------7----5----5---7---7----7----|-7-----------------7----5----5---7---7----7----|
A|-7-----------------7----7----7---7---7----7----|-7-----------------7----7----7---7---7----7----|
E|-5-----------------5----5----5---5---5----5----|-5-----------------5----5----5---5---5----5----|

E|-----------------------------------------------------------|-----------------------------------------------------------|
B|-----------------------------------------------------------|-----------------------------------------------------------|
G|------------------%----------------------------%-----------|------------------%----------------------------%-----------|
D|-9----------------%-----------11---------------%-----------|-12---------------%-----------11---------------%-----------|
A|-7----X---X---X-------X---X---7----X---X---X-------X---X---|-10---X---X---X-------X---X---7----X---X---X-------X---X---|
E|-0----X---X---0-------0---0---0----X---X---0-------0---0---|-0----X---X---0-------0---0---0----X---X---0-------0---0---|

E|-----------------------------------------------------------|-----------------------------|
B|-----------------------------------------------------------|-----------------------------|
G|------------------%----------------------------%-----------|------%----%-----%-----%-----|
D|-9----------------%-----------11---------------%-----------|------%----%-----%-----%-----|
A|-7----X---X---X-------X---X---7----X---X---X-------X---X---|-----------------------------|
E|-0----X---X---0-------0---0---0----X---X---0-------0---0---|-0---------------------------|

E|------5----5---5-------------------------------|------5----5---5-------------------------------|
B|------5----5---5-------------------------------|------5----5---5-------------------------------|
G|------6----6---6--------7----7---6---6----6----|------6----6---6--------7----7---6---6----6----|
D|-7-----------------7----5----5---7---7----7----|-7-----------------7----5----5---7---7----7----|
A|-7-----------------7----7----7---7---7----7----|-7-----------------7----7----7---7---7----7----|
E|-5-----------------5----5----5---5---5----5----|-5-----------------5----5----5---5---5----5----|

E|------5----5---5-------------------------------|------5----5---5-------------------------------|
B|------5----5---5-------------------------------|------5----5---5-------------------------------|
G|------6----6---6--------7----7---6---6----6----|------6----6---6--------7----7---6---6----6----|
D|-7-----------------7----5----5---7---7----7----|-7-----------------7----5----5---7---7----7----|
A|-7-----------------7----7----7---7---7----7----|-7-----------------7----7----7---7---7----7----|
E|-5-----------------5----5----5---5---5----5----|-5-----------------5----5----5---5---5----5----|

E|----------------------------------------------|-----------------------------------------------------|
B|----------------------------------------------|-----------------------------------------------------|
G|----------------------------------------------|-7----7---5---7----5---4---5----4-------4-------4----|
D|-9----X---X---9----X---X---9----X---X---9-----|------------------------------------7-------7--------|
A|-7----X---X---7----X---X---7----X---X---7-----|-----------------------------------------------------|
E|-0----0---0---0----0---0---0----0---0---0-----|-----------------------------------------------------|

E|----------------------------------------------|-----------------------------------------------------------------|
B|----------------------------------------------|-----------------------------------------------------------------|
G|----------------------------------------------|-16--14------17--16--14--16--14------17--16--14--16--14----------|
D|-9----X---X---9----X---X---9----X---X---9-----|---------17----------------------17----------------------17--16--|
A|-7----X---X---7----X---X---7----X---X---7-----|-----------------------------------------------------------------|
E|-0----0---0---0----0---0---0----0---0---0-----|-----------------------------------------------------------------|

E|----------------------------------------------|-----------------------15--19----|
B|----------------------------------------------|-19----19----15------------------|
G|----------------------------------------------|------------------17-------------|
D|-17---X---X---9----X---X---9----X---X---9-----|---------------------------------|
A|------X---X---7----X---X---7----X---X---7-----|---------------------------------|
E|------0---0---0----0---0---0----0---0---0-----|---------------------------------|

E|----------------------------------------------|-----------------------------------------------------------|
B|----------------------------------------------|-----------------------------------------------------------|
G|----------------------------------------------|-------------14--14--14--17--17--17--16--16--16--14--------|
D|-9----X---X---9----X---X---9----X---X---9-----|-15--15--15-------------------------------------------15---|
A|-7----X---X---7----X---X---7----X---X---7-----|-----------------------------------------------------------|
E|-0----0---0---0----0---0---0----0---0---0-----|-----------------------------------------------------------|

E|----------------------------------------------------|----------------------------------------------------|
B|----------------------------------------------------|----------------------------------------------------|
G|----------------------------------------------------|----------------------------------------------------|
D|------11--9-------9---7-------7---5-------5---5-----|------11--9-------9---7-------7---5-------5---5-----|
A|-0------------0-----------0-----------0-------------|-0------------0-----------0-----------0-------------|
E|----------------------------------------------------|----------------------------------------------------|

E|----------------------------------------------------|----------------------------------------------------|
B|----------------------------------------------------|----------------------------------------------------|
G|----------------------------------------------------|----------------------------------------------------|
D|------11--9-------9---7-------7---5-------5---5-----|------11--9-------9---7-------7---5-------5---5-----|
A|-0------------0-----------0-----------0-------------|-0------------0-----------0-----------0-------------|
E|----------------------------------------------------|----------------------------------------------------|

E|------2----2---2--------3----3---2---2---------|------2----2---2--------3----3---2---2---------|
B|------3----3---3--------3----3---3---3----3----|------3----3---3--------3----3---3---3----3----|
G|-2----2----2---2---2----2----2---2---2----2----|-2----2----2---2---2----2----2---2---2----2----|
D|-0-----------------0----------------------0----|-0-----------------0----------------------0----|
A|-----------------------------------------------|-----------------------------------------------|
E|-------------------------------------0---------|-----------------------------------------------|

E|------2----2---2--------3----3---2---2---------|------2----2---2--------3----3---2---2---------|
B|------3----3---3--------3----3---3---3----3----|------3----3---3--------3----3---3---3----3----|
G|-2----2----2---2---2----2----2---2---2----2----|-2----2----2---2---2----2----2---2---2----2----|
D|-0-----------------0----------------------0----|-0-----------------0----------------------0----|
A|-----------------------------------------------|-----------------------------------------------|
E|-----------------------------------------------|-------------------------------------0---------|

E|------5----5---5-------------------------------|------5----5---5-------------------------------|
B|------5----5---5-------------------------------|------5----5---5-------------------------------|
G|------6----6---6--------7----7---6---6----6----|------6----6---6--------7----7---6---6----6----|
D|-7-----------------7----5----5---7---7----7----|-7-----------------7----5----5---7---7----7----|
A|-7-----------------7----7----7---7---7----7----|-7-----------------7----7----7---7---7----7----|
E|-5-----------------5----5----5---5---5----5----|-5-----------------5----5----5---5---5----5----|

E|------5----5---5-------------------------------|------5----5---5-------------------------------|
B|------5----5---5-------------------------------|------5----5---5-------------------------------|
G|------6----6---6--------7----7---6---6----6----|------6----6---6--------7----7---6---6----6----|
D|-7-----------------7----5----5---7---7----7----|-7-----------------7----5----5---7---7----7----|
A|-7-----------------7----7----7---7---7----7----|-7-----------------7----7----7---7---7----7----|
E|-5-----------------5----5----5---5---5----5----|-5-----------------5----5----5---5---5----5----|

E|------2----2---2--------3----3---2---2---------|------2----2---2--------3----3---2---2---------|
B|------3----3---3--------3----3---3---3----3----|------3----3---3--------3----3---3---3----3----|
G|-2----2----2---2---2----2----2---2---2----2----|-2----2----2---2---2----2----2---2---2----2----|
D|-0-----------------0----------------------0----|-0-----------------0----------------------0----|
A|-----------------------------------------------|-----------------------------------------------|
E|-----------------------------------------------|-----------------------------------------------|

E|------2----2---2--------3----3---2---2---------|------2----2---2--------3----3---2---2---------|
B|------3----3---3--------3----3---3---3----3----|------3----3---3--------3----3---3---3----3----|
G|-2----2----2---2---2----2----2---2---2----2----|-2----2----2---2---2----2----2---2---2----2----|
D|-0-----------------0----------------------0----|-0-----------------0----------------------0----|
A|-----------------------------------------------|-----------------------------------------------|
E|-----------------------------------------------|-------------------------------------5---------|

E|------5----5---5-------------------------------|------5----5---5-------------------------------|
B|------5----5---5-------------------------------|------5----5---5-------------------------------|
G|------6----6---6--------7----7---6---6----6----|------6----6---6--------7----7---6---6----6----|
D|-7-----------------7----5----5---7---7----7----|-7-----------------7----5----5---7---7----7----|
A|-7-----------------7----7----7---7---7----7----|-7-----------------7----7----7---7---7----7----|
E|-5-----------------5----5----5---5---5----5----|-5-----------------5----5----5---5---5----5----|

E|------5----5---5-------------------------------|------5----5---5-------------------------------|
B|------5----5---5-------------------------------|------5----5---5-------------------------------|
G|------6----6---6--------7----7---6---6----6----|------6----6---6--------7----7---6---6----6----|
D|-7-----------------7----5----5---7---7----7----|-7-----------------7----5----5---7---7----7----|
A|-7-----------------7----7----7---7---7----7----|-7-----------------7----7----7---7---7----7----|
E|-5-----------------5----5----5---5---5----5----|-5-----------------5----5----5---5---5----5----|

E|------2----2---2--------3----3---2---2---------|------2----2---2--------3----3---2---2---------|
B|------3----3---3--------3----3---3---3----3----|------3----3---3--------3----3---3---3----3----|
G|-2----2----2---2---2----2----2---2---2----2----|-2----2----2---2---2----2----2---2---2----2----|
D|-0-----------------0----------------------0----|-0-----------------0----------------------0----|
A|-----------------------------------------------|-----------------------------------------------|
E|-----------------------------------------------|-----------------------------------------------|

E|------2----2---2--------3----3---2---2---------|------2----2---2--------3----3---2---2---------|
B|------3----3---3--------3----3---3---3----3----|------3----3---3--------3----3---3---3----3----|
G|-2----2----2---2---2----2----2---2---2----2----|-2----2----2---2---2----2----2---2---2----2----|
D|-0-----------------0----------------------0----|-0-----------------0----------------------0----|
A|-----------------------------------------------|-----------------------------------------------|
E|-----------------------------------------------|-------------------------------------5---------|
Iron Maiden - Women In Uniform
Iron Maiden - Women In Uniform.gp3