Iron Maiden - Wratchild

Iron Maiden



Title: Wrathchild
Album: 
Artist: Iron Maiden
Author: 

Track 1: Dave Murray (Guitar)
E|---------|---------|-------------------------------------------------|-------------------------------------------------------|
B|---------|---------|-------------------------------------------------|-------------------------------------------------------|
G|-%-------|-%-------|-7---9---9---9---9-----9---7---9---9---9---9-----|-7---9---9---9---9-------------------------------------|
D|-%-------|-%-------|-7---9---9---9---9-----9---7---9---9---9---9-----|-7---9---9---9---9-----5---5---4---5---7---5---4-------|
A|---------|---------|-5---7---7---7---7-----7---5---7---7---7---7-----|-5---7---7---7---7---------------------------------5---|
E|---------|---------|-------------------------------------------------|-------------------------------------------------------|

E|-------------------------------------------------|-------------------------------------------------------|
B|-------------------------------------------------|-------------------------------------------------------|
G|-7---9---9---9---9-----9---7---9---9---9---9-----|-7---9---9---9---9-------------------------------------|
D|-7---9---9---9---9-----9---7---9---9---9---9-----|-7---9---9---9---9-----5---5---4---5---7---5---4-------|
A|-5---7---7---7---7-----7---5---7---7---7---7-----|-5---7---7---7---7---------------------------------5---|
E|-------------------------------------------------|-------------------------------------------------------|

E|---------------------------------------------|-----------------------------------------------------------|
B|---------------------------------------------|-----------------------------------------------------------|
G|-7---9---9---9---9-----7---9---9---9---9-----|-7---9---9---9---9----9------------------------------------|
D|-7---9---9---9---9-----7---9---9---9---9-----|-7---9---9---9---9----9----5---5---4---5---7---5---4-------|
A|-5---7---7---7---7-----5---7---7---7---7-----|-5---7---7---7---7----7--------------------------------5---|
E|---------------------------------------------|-----------------------------------------------------------|

E|-------------------------------------------------|-------------------------------------------------------|
B|-------------------------------------------------|-------------------------------------------------------|
G|-7---9---9---9---9-----9---7---9---9---9---9-----|-7---9---9---9---9-------------------------------------|
D|-7---9---9---9---9-----9---7---9---9---9---9-----|-7---9---9---9---9-----5---5---4---5---7---5---4-------|
A|-5---7---7---7---7-----7---5---7---7---7---7-----|-5---7---7---7---7---------------------------------5---|
E|-------------------------------------------------|-------------------------------------------------------|

E|-----------------------|---------------------------------------------|---------------|
B|-----------------------|---------------------------------------------|---------------|
G|-5------5---5---4------|-7---9---9---9---9-----7---9---9---9---9-----|-5------4------|
D|-5------5---5---4------|-7---9---9---9---9-----7---9---9---9---9-----|-5------4------|
A|-3------3---3---2------|-5---7---7---7---7-----5---7---7---7---7-----|-3------2------|
E|-----------------------|---------------------------------------------|---------------|

E|----------------------------------------------------|-----------------------|---------------|
B|----------------------------------------------------|-----------------------|---------------|
G|-7---9---9---9---9----9---9---7---9---9---9---9-----|-5------4------4---4---|---------------|
D|-7---9---9---9---9----9---9---7---9---9---9---9-----|-5------4------4---4---|-5------4------|
A|-5---7---7---7---7----7---7---5---7---7---7---7-----|-3------2------2---2---|-5------4------|
E|----------------------------------------------------|-----------------------|-3------2------|

E|---------------|---------------------------------------------|-------------------------------------------------------|
B|---------------|---------------------------------------------|-------------------------------------------------------|
G|-5------4------|-7---9---9---9---9-----7---9---9---9---9-----|-7---9---9---9---9-------------------------------------|
D|-5------4------|-7---9---9---9---9-----7---9---9---9---9-----|-7---9---9---9---9-----5---5---4---5---7---5---4-------|
A|-3------2------|-5---7---7---7---7-----5---7---7---7---7-----|-5---7---7---7---7---------------------------------5---|
E|---------------|---------------------------------------------|-------------------------------------------------------|

E|---------------------------------------------|-------------------------------------------------------|
B|---------------------------------------------|-------------------------------------------------------|
G|-7---9---9---9---9-----7---9---9---9---9-----|-7---9---9---9---9-------------------------------------|
D|-7---9---9---9---9-----7---9---9---9---9-----|-7---9---9---9---9-----5---5---4---5---7---5---4-------|
A|-5---7---7---7---7-----5---7---7---7---7-----|-5---7---7---7---7---------------------------------5---|
E|---------------------------------------------|-------------------------------------------------------|

E|-----------------------------------------------------------|-----------------------------------------------------|
B|-----------------------------------------------------------|-----------------------------------------------------|
G|-7---9---9---9---9----9------------------------------------|-9----9---9---9----9---------------------------------|
D|-7---9---9---9---9----9------------------------------------|-9----9---9---9----9----5---6---7--------------------|
A|-5---7---7---7---7----7---7---7---5-------5---5-------5----|-7----7---7---7----7----------------5---5-------5----|
E|--------------------------------------7-----------7--------|--------------------------------------------7--------|

E|-------------------------------------------------|--------------------------------------------------|
B|-------------------------------------------------|--------------------------------------------------|
G|-9----9---9---9----------------------------------|-5---5---5---5---5--------5----5--------5----5----|
D|-9----9---9---9----------------------------------|-5---5---5---5---5--------5----5--------5----5----|
A|-7----7---7---7-----7---5-------5---5-------5----|-3---3---3---3---3--------3----3--------3----3----|
E|----------------------------7-----------7--------|----------------------3-------------3-------------|

E|--------------------------------------------------|--------------------------------------------------|
B|--------------------------------------------------|--------------------------------------------------|
G|-7---7---7---7---7--------7----7--------7----7----|--------------------------------------------------|
D|-7---7---7---7---7--------7----7--------7----7----|--------------------------------------------------|
A|-5---5---5---5---5--------5----5--------5----5----|-7---5-------5---5--------5-----------------------|
E|----------------------5-------------5-------------|---------7-----------7---------7----6---5----3----|

E|---------------------------------------------|-------------------------------------------------------|
B|---------------------------------------------|-------------------------------------------------------|
G|-7---9---9---9---9-----7---9---9---9---9-----|-7---9---9---9---9-------------------------------------|
D|-7---9---9---9---9-----7---9---9---9---9-----|-7---9---9---9---9-----5---5---4---5---7---5---4-------|
A|-5---7---7---7---7-----5---7---7---7---7-----|-5---7---7---7---7---------------------------------5---|
E|---------------------------------------------|-------------------------------------------------------|

E|---------------------------------------------|-------------------------------------------------------|
B|---------------------------------------------|-------------------------------------------------------|
G|-7---9---9---9---9-----7---9---9---9---9-----|-7---9---9---9---9-------------------------------------|
D|-7---9---9---9---9-----7---9---9---9---9-----|-7---9---9---9---9-----5---5---4---5---7---5---4-------|
A|-5---7---7---7---7-----5---7---7---7---7-----|-5---7---7---7---7---------------------------------5---|
E|---------------------------------------------|-------------------------------------------------------|

E|---------------------------------------------|-------------------------------------------------------|
B|---------------------------------------------|-------------------------------------------------------|
G|-7---9---9---9---9-----7---9---9---9---9-----|-7---9---9---9---9-------------------------------------|
D|-7---9---9---9---9-----7---9---9---9---9-----|-7---9---9---9---9-----5---5---4---5---7---5---4-------|
A|-5---7---7---7---7-----5---7---7---7---7-----|-5---7---7---7---7---------------------------------5---|
E|---------------------------------------------|-------------------------------------------------------|

E|---------------------------------------------|-------------------------------------------------------|
B|---------------------------------------------|-------------------------------------------------------|
G|-7---9---9---9---9-----7---9---9---9---9-----|-7---9---9---9---9-------------------------------------|
D|-7---9---9---9---9-----7---9---9---9---9-----|-7---9---9---9---9-----5---5---4---5---7---5---4-------|
A|-5---7---7---7---7-----5---7---7---7---7-----|-5---7---7---7---7---------------------------------5---|
E|---------------------------------------------|-------------------------------------------------------|

E|--------------------------------------------------|--------------------------------------------------|
B|--------------------------------------------------|--------------------------------------------------|
G|-5---5---5---5---5--------5----5--------5----5----|-7---7---7---7---7--------7----7--------7----7----|
D|-5---5---5---5---5--------5----5--------5----5----|-7---7---7---7---7--------7----7--------7----7----|
A|-3---3---3---3---3--------3----3--------3----3----|-5---5---5---5---5--------5----5--------5----5----|
E|----------------------3-------------3-------------|----------------------5-------------5-------------|

E|--------------------------------------------------|--------|--------------------------------------------------------------|
B|--------------------------------------------------|--------|--------------------------------------------------------------|
G|--------------------------------------------------|-%------|---------%---------------%------------------------------------|
D|--------------------------------------------------|-%------|---------%-------0-------%-------0----------------------------|
A|-7---5-------5---5--------5-----------------------|--------|-2---2-------2-------2-------2-------2---1---0----------------|
E|---------7-----------7---------7----6---5----3----|--------|-------------------------------------------------3---0---0----|

E|--------------------------------------------------------------|--------------------------------------------------------------|
B|--------------------------------------------------------------|--------------------------------------------------------------|
G|---------%---------------%------------------------------------|---------%---------------%------------------------------------|
D|---------%-------0-------%-------0----------------------------|---------%-------0-------%-------0----------------------------|
A|-2---2-------2-------2-------2-------2---1---0----------------|-2---2-------2-------2-------2-------2---1---0----------------|
E|-------------------------------------------------3---0---0----|-------------------------------------------------3---0---0----|

E|--------------------------------------------------------------|--------------------------------------------------------------|
B|--------------------------------------------------------------|--------------------------------------------------------------|
G|---------%---------------%------------------------------------|---------%---------------%------------------------------------|
D|---------%-------0-------%-------0----------------------------|---------%-------2-------%-------2----------------------------|
A|-2---2-------2-------2-------2-------2---1---0----------------|-4---4-------4-------4-------4-------4---3---2----------------|
E|-------------------------------------------------3---0---0----|-------------------------------------------------5---2---2----|

E|--------------------------------------------------------------|--------------------------------------------------------------|
B|--------------------------------------------------------------|--------------------------------------------------------------|
G|---------%---------------%------------------------------------|---------%---------------%------------------------------------|
D|---------%-------2-------%-------2----------------------------|---------%-------3-------%-------3----------------------------|
A|-4---4-------4-------4-------4-------4---3---2----------------|-5---5-------5-------5-------5-------5---4---3---1------------|
E|-------------------------------------------------5---2---2----|-----------------------------------------------------3---3----|

E|--------------------------------------------------------------|--------------------------------------------------|
B|--------------------------------------------------------------|--------------------------------------------------|
G|---------%---------------%------------------------------------|--------------------------------------------------|
D|---------%-------3-------%-------3----------------------------|--------------------------------------------------|
A|-5---5-------5-------5-------5-------5---4---3---1------------|-7---5-------5---5--------5-----------------------|
E|-----------------------------------------------------3---3----|---------7-----------7---------7----6---5----3----|

E|----------------------------------------------------|-------------------------------------------------------|
B|----------------------------------------------------|-------------------------------------------------------|
G|-7---9---9---9---9-----7---9---9---9---9----9---9---|-7---9---9---9---9-------------------------------------|
D|-7---9---9---9---9-----7---9---9---9---9----9---9---|-7---9---9---9---9-----5---5---4---5---7---5---4-------|
A|-5---7---7---7---7-----5---7---7---7---7----7---7---|-5---7---7---7---7---------------------------------5---|
E|----------------------------------------------------|-------------------------------------------------------|

E|--------------------------------------------------------|-------------------------------------------------------|
B|--------------------------------------------------------|-------------------------------------------------------|
G|-7---9---9---9---9----9---9---7---9---9---9---9-----9---|-7---9---9---9---9-------------------------------------|
D|-7---9---9---9---9----9---9---7---9---9---9---9-----9---|-7---9---9---9---9-----5---5---4---5---7---5---4-------|
A|-5---7---7---7---7----7---7---5---7---7---7---7-----7---|-5---7---7---7---7---------------------------------5---|
E|--------------------------------------------------------|-------------------------------------------------------|

E|-------------------------------------------------|-------------------------------------------------------|
B|-------------------------------------------------|-------------------------------------------------------|
G|-7---9---9---9---9-----7---9---9---9---9----9----|-7---9---9---9---9-------------------------------------|
D|-7---9---9---9---9-----7---9---9---9---9----9----|-7---9---9---9---9-----5---5---4---5---7---5---4-------|
A|-5---7---7---7---7-----5---7---7---7---7----7----|-5---7---7---7---7---------------------------------5---|
E|-------------------------------------------------|-------------------------------------------------------|

E|-------------------------------------------------|-------------------------------------------------------|
B|-------------------------------------------------|-------------------------------------------------------|
G|-7---9---9---9---9-----7---9---9---9---9-----9---|-7---9---9---9---9-------------------------------------|
D|-7---9---9---9---9-----7---9---9---9---9-----9---|-7---9---9---9---9-----5---5---4---5---7---5---4-------|
A|-5---7---7---7---7-----5---7---7---7---7-----7---|-5---7---7---7---7---------------------------------5---|
E|-------------------------------------------------|-------------------------------------------------------|

E|---------------|---------------------------------------------|-----------------------|
B|---------------|---------------------------------------------|-----------------------|
G|-5------4------|-7---9---9---9---9-----7---9---9---9---9-----|-5------5---5---4------|
D|-5------4------|-7---9---9---9---9-----7---9---9---9---9-----|-5------5---5---4------|
A|-3------2------|-5---7---7---7---7-----5---7---7---7---7-----|-3------3---3---2------|
E|---------------|---------------------------------------------|-----------------------|

E|---------------------------------------------|---------------|---------------------------------------------|
B|---------------------------------------------|---------------|---------------------------------------------|
G|-7---9---9---9---9-----7---9---9---9---9-----|-5------4------|---------------------------------------------|
D|-7---9---9---9---9-----7---9---9---9---9-----|-5------4------|-5---5---5---5---5----5---5---4------4---4---|
A|-5---7---7---7---7-----5---7---7---7---7-----|-3------2------|-5---5---5---5---5----5---5---4------4---4---|
E|---------------------------------------------|---------------|-3---3---3---3---3----3---3---2------2---2---|

E|--------------------|-------------------------------------------------|-----------------------------------------------------------|
B|--------------------|-------------------------------------------------|-----------------------------------------------------------|
G|-5------4-----4-----|-7---9---9---9---9-----9---7---9---9---9---9-----|-7---9---9---9---9----9------------------------------------|
D|-5------4-----4-----|-7---9---9---9---9-----9---7---9---9---9---9-----|-7---9---9---9---9----9----5---5---4---5---7---5---4-------|
A|-3------2-----2-----|-5---7---7---7---7-----7---5---7---7---7---7-----|-5---7---7---7---7----7--------------------------------5---|
E|--------------------|-------------------------------------------------|-----------------------------------------------------------|

E|---------------------------------------------|-------------------------------------------------------|
B|---------------------------------------------|-------------------------------------------------------|
G|-7---9---9---9---9-----7---9---9---9---9-----|-7---9---9---9---9-------------------------------------|
D|-7---9---9---9---9-----7---9---9---9---9-----|-7---9---9---9---9-----5---5---4---5---7---5---4-------|
A|-5---7---7---7---7-----5---7---7---7---7-----|-5---7---7---7---7---------------------------------5---|
E|---------------------------------------------|-------------------------------------------------------|

E|----------------------------------------------------|--------------------------------------------------------|
B|----------------------------------------------------|--------------------------------------------------------|
G|-7---9---9---9---9----------------------------------|-9---9---9---9---9----9---------------------------------|
D|-7---9---9---9---9----------------------------------|-9---9---9---9---9----9----5---6---7--------------------|
A|-5---7---7---7---7-----7---5-------5---5-------5----|-7---7---7---7---7----7----------------5---5-------5----|
E|-------------------------------7-----------7--------|-----------------------------------------------7--------|

E|----------------------------------------------------|--------------------------------------------------|
B|----------------------------------------------------|--------------------------------------------------|
G|-7---9---9---9---9----------------------------------|-5---5---5---5---5--------5----5--------5----5----|
D|-7---9---9---9---9----------------------------------|-5---5---5---5---5--------5----5--------5----5----|
A|-5---7---7---7---7-----7---5-------5---5-------5----|-3---3---3---3---3--------3----3--------3----3----|
E|-------------------------------7-----------7--------|----------------------3-------------3-------------|

E|--------------------------------------------------|--------------------------------------------------|
B|--------------------------------------------------|--------------------------------------------------|
G|-7---7---7---7---7--------7----7--------7----7----|--------------------------------------------------|
D|-7---7---7---7---7--------7----7--------7----7----|--------------------------------------------------|
A|-5---5---5---5---5--------5----5--------5----5----|-7---5-------5---5--------5-----------------------|
E|----------------------5-------------5-------------|---------7-----------7---------7----6---5----3----|

E|--------------------------------------------------|--------------------------------------------------|
B|--------------------------------------------------|--------------------------------------------------|
G|--------------------------------------------------|--------------------------------------------------|
D|--------------------------------------------------|--------------------------------------------------|
A|-7---5-------5---5--------5-----------------------|-7---5-------5---5--------5-----------------------|
E|---------7-----------7---------7----6---5----3----|---------7-----------7---------7----6---5----3----|

E|--------------------|
B|--------------------|
G|-------%-----%------|
D|-------%-----%------|
A|--------------------|
E|-0------------------|
Iron Maiden - Wratchild
Iron Maiden - Wratchild.gp3