Iron Maiden - Wrathchild (3)

Iron Maiden



Title: Wrathchild
Album: Killers
Artist: Iron Maiden
Author: Steve Harris

Track 1: Guitar One
E|---------|---------|---------------------------------------|-------------------------|
B|---------|---------|-15----15----15---15---15--15--12------|-------------------------|
G|-%-------|-%-------|-----------------------------------12--|-12-----12---X------%----|
D|-%-------|-%-------|---------------------------------------|--------------------%----|
A|---------|---------|---------------------------------------|-------------------------|
E|---------|---------|---------------------------------------|-------------------------|

E|-14----14----14----14-----------|--------------------|---------|---------|---------|
B|-0------------------------------|--------------------|---------|---------|---------|
G|-0----------------------12--14--|-12----------%------|-%-------|-%-------|-%-------|
D|--------------------------------|-------14----%------|-%-------|-%-------|-%-------|
A|--------------------------------|--------------------|---------|---------|---------|
E|--------------------------------|--------------------|---------|---------|---------|

E|---------|---------|-------------------------------|--------------------|---------15---15---15---12-------12--------|
B|---------|---------|-------------------------------|--------------------|-----12---------------------15-------15----|
G|-%-------|-%-------|-%------14----14--12--14--12---|-12----%-----%------|-%-----------------------------------------|
D|-%-------|-%-------|-%-----------------------------|-------%-----%------|-%-----------------------------------------|
A|---------|---------|-------------------------------|--------------------|-------------------------------------------|
E|---------|---------|-------------------------------|--------------------|-------------------------------------------|

E|---------|---------|---------|--------------------------------------------------------------|
B|---------|---------|---------|--------------------------------------------------------------|
G|-%-------|-%-------|-%-------|-%----2----2----2----2----2----2----2----2----2---2---2---2---|
D|-%-------|-%-------|-%-------|-%------------------------------------------------------------|
A|---------|---------|---------|--------------------------------------------------------------|
E|---------|---------|---------|--------------------------------------------------------------|

E|-------------------------------------|-----------------------------------------|---------------------------------------|
B|-------------------------------------|-------15----15--------------------------|---------------------------------------|
G|-2---2---2---2---2----2---0---2------|-%-----0-----------14--%---14--%---12-14-|-12-----------14---14--12--12-----12---|
D|-------------------------------------|-%-----0---------------%-------%---------|------14--12---------------------------|
A|-------------------------------------|-----------------------------------------|---------------------------------------|
E|-------------------------------------|-----------------------------------------|---------------------------------------|

E|---------|---------|---------|---------|---------|------------------------|--------------------------------|
B|---------|---------|---------|---------|---------|------------------------|--------------------------------|
G|-%-------|-%-------|-%-------|-%-------|-%-------|-%------%-----%----2----|-2-----2-----2------------------|
D|-%-------|-%-------|-%-------|-%-------|-%-------|-%------%-----%---------|--------------------------------|
A|---------|---------|---------|---------|---------|------------------------|--------------------------------|
E|---------|---------|---------|---------|---------|------------------------|-----------------X---0----0-----|

E|-----------------------------------------------------------------------------------|
B|-----------------------------------------------------------------------------------|
G|-----------2---0---2---0---2---0---3---0---4---0---4---0---5---0---5---0---6---0---|
D|-----------------------------------------------------------------------------------|
A|-----------------------------------------------------------------------------------|
E|-0----0----------------------------------------------------------------------------|

E|--------------------------------------12------------12--12------|-------------------------------------------------------|
B|--------------------------------------12--15----15------12--15--|-----12-15-12--------------------15-17-15-----15-17----|
G|-0----7--0--8--0--9--0--9--0--9---12----------------------------|-%-------------14--14---7----16------------16----------|
D|-0--------------------------------------------------------------|-%-----------------------------------------------------|
A|----------------------------------------------------------------|-------------------------------------------------------|
E|----------------------------------------------------------------|-------------------------------------------------------|

E|------------------------------------|----------------------------------------------14--17---17---|
B|-17----17--17--17---17--17-----17---|-17---15-17-15-14-15--14--15--14----------17----------------|
G|------------------------------------|----------------------------------16------------------------|
D|------------------------------------|--------------------------------------14--------------------|
A|------------------------------------|------------------------------------------------------------|
E|------------------------------------|------------------------------------------------------------|

E|-17----17--17--17--17---17--17------19--19---19--18--|-17-18-17----17-------------------------------|
B|--------------------------------17-------------------|----------20-----20--20--20--20---20-----20---|
G|-----------------------------------------------------|----------------------------------------------|
D|-----------------------------------------------------|----------------------------------------------|
A|-----------------------------------------------------|----------------------------------------------|
E|-----------------------------------------------------|----------------------------------------------|

E|---------|---------|---------|--------|---------|---------|---------|---------|---------|
B|---------|---------|---------|--------|---------|---------|---------|---------|---------|
G|-%-------|-%-------|-%-------|-%------|-%-------|-%-------|-%-------|-%-------|-%-------|
D|-%-------|-%-------|-%-------|-%------|-%-------|-%-------|-%-------|-%-------|-%-------|
A|---------|---------|---------|--------|---------|---------|---------|---------|---------|
E|---------|---------|---------|--------|---------|---------|---------|---------|---------|

E|---------|---------|-------------------|--------------------|--------------------|
B|---------|---------|-------------------|--------------------|--------------------|
G|-%-------|-%-------|-7-------7----7----|-7------7------%----|-14-----14---12-----|
D|-%-------|-%-------|-------------------|---------------%----|--------------------|
A|---------|---------|-------------------|--------------------|--------------------|
E|---------|---------|-------------------|--------------------|--------------------|

E|-------------12------------------------|---------|---------|---------|---------|---------|
B|-15----15--------15--12----------------|---------|---------|---------|---------|---------|
G|-------------------------12--12---12---|-%-------|-%-------|-%-------|-%-------|-%-------|
D|---------------------------------------|-%-------|-%-------|-%-------|-%-------|-%-------|
A|---------------------------------------|---------|---------|---------|---------|---------|
E|---------------------------------------|---------|---------|---------|---------|---------|

E|-7---10--0---7---10--0---7---10--0-----------12--------|------------------------|
B|-------------------------------------0---12------15----|-15---------------------|
G|-------------------------------------------------------|------%----%-----%------|
D|-------------------------------------------------------|------%----%-----%------|
A|-------------------------------------------------------|------------------------|
E|-------------------------------------------------------|------------------------|

E|---------15---15---15---12--------------|------------------------|---------|---------|
B|-----12---------------------------------|------------------------|---------|---------|
G|-%--------------------------12----12----|-12---%----%-----%------|-%-------|-%-------|
D|-%--------------------------------------|------%----%-----%------|-%-------|-%-------|
A|----------------------------------------|------------------------|---------|---------|
E|----------------------------------------|------------------------|---------|---------|

E|---------------------------------------|---------------------------------------|-----------------------------------------------------|
B|---------------------------------------|---------------------------------------|------12----------12-------12--12---12---------------|
G|-2-----2-----2----2---2---2----2---2---|-2----2---2---2----2---0---2----2------|-14-------14--14------14-------14-------14---14--12--|
D|---------------------------------------|---------------------------------------|-----------------------------------------------------|
A|---------------------------------------|---------------------------------------|-----------------------------------------------------|
E|---------------------------------------|---------------------------------------|-----------------------------------------------------|

E|----------------------------------|---------|---------|---------|---------|---------|
B|------12----------12--15---15-----|---------|---------|---------|---------|---------|
G|-14-------14--14------------------|-%-------|-%-------|-%-------|-%-------|-%-------|
D|----------------------------------|-%-------|-%-------|-%-------|-%-------|-%-------|
A|----------------------------------|---------|---------|---------|---------|---------|
E|----------------------------------|---------|---------|---------|---------|---------|

E|-----------------------------------------------------|-----------------------------------------------------|
B|-----------------------------------------------------|-----------------------------------------------------|
G|-----------------------------------------------------|-----------------------------------------------------|
D|-----------------------------------------------------|-----------------------------------------------------|
A|-7---5-------5---5--------5---5----------------------|-7---5-------5---5--------5---5----------------------|
E|---------7-----------7------------7----6---5----3----|---------7-----------7------------7----6---5----3----|

E|-----------------------------------------------------|--------------------|
B|-----------------------------------------------------|--------------------|
G|-----------------------------------------------------|-12----%-----%------|
D|-14--12------12--12-------12--12---------------------|-12----%-----%------|
A|---------14----------14-----------14---13--12---10---|-X------------------|
E|-----------------------------------------------------|-12-----------------|
Iron Maiden - Wrathchild (3)
Iron Maiden - Wrathchild (3).gp3