major scale through the whole guitar

major scale through the whole guitar

Lessons



Title: Major Scale Through The Whole Guitar + Exercises
Album: 
Artist: 
Author: Antonio Fuentes & Jesús Naranjo

Track 1: Pista 1
E|-------------------------|-------------------------|-----------------------------------------|
B|-------------------------|-------------------------|-----------------------------------------|
G|-%-----%-----%-----%-----|-%-----%-----%-----%-----|-------------------------------1----2----|
D|-%-----%-----%-----%-----|-%-----%-----%-----%-----|---------------------2----4--------------|
A|-------------------------|-------------------------|------2----4----5------------------------|
E|-------------------------|-------------------------|-5---------------------------------------|

E|---------------------2----4----5----4----|-2---------------------------------------|
B|------2----3----5------------------------|------5----3----2------------------------|
G|-4---------------------------------------|---------------------4----2----1---------|
D|-----------------------------------------|------------------------------------4----|
A|-----------------------------------------|-----------------------------------------|
E|-----------------------------------------|-----------------------------------------|

E|-----------------------------------------|---------------|-------------------------|
B|-----------------------------------------|---------------|-------------------------|
G|-----------------------------------------|--------%------|-%-----%-----%-----%-----|
D|-2---------------------------------------|--------%------|-%-----%-----%-----%-----|
A|------5----4----2------------------------|---------------|-------------------------|
E|---------------------5----4----2----4----|-5-------------|-------------------------|

E|---------------|-----------------------------------------|--------------------------4----5----7----|
B|---------------|-----------------------------------------|----------------5----7-------------------|
G|-%------%------|-----------------------------------------|-4----6----7-----------------------------|
D|-%------%------|--------------------------4----6----7----|-----------------------------------------|
A|---------------|-----------4----5----7-------------------|-----------------------------------------|
E|---------------|-5----7----------------------------------|-----------------------------------------|

E|-5----4----------------------------------|-------------------------------------|-------------------------|
B|-----------7----5------------------------|-------------------------------------|-------------------------|
G|---------------------7----6----4---------|-------------------------------------|-%-----%-----%-----%-----|
D|------------------------------------7----|-6----4------------------------------|-%-----%-----%-----%-----|
A|-----------------------------------------|-----------7----5----4---------------|-------------------------|
E|-----------------------------------------|--------------------------7----5-----|-------------------------|

E|---------------|-----------------------------------------|------------------------------------7----|
B|---------------|-----------------------------------------|---------------------7----9----10--------|
G|-%------%------|-----------------------------------------|------6----7----9------------------------|
D|-%------%------|-------------------------------6----7----|-9---------------------------------------|
A|---------------|----------------5----7----9--------------|-----------------------------------------|
E|---------------|-5----7----9-----------------------------|-----------------------------------------|

E|-9----10---9----7------------------------|-----------------------------------------|
B|---------------------10---9----7---------|-----------------------------------------|
G|------------------------------------9----|-7----6----------------------------------|
D|-----------------------------------------|-----------9----7----6-------------------|
A|-----------------------------------------|--------------------------9----7----5----|
E|-----------------------------------------|-----------------------------------------|

E|------------------------|-------------------------|---------------|-----------------------------------------|
B|------------------------|-------------------------|---------------|-------------------------------9----10---|
G|-----------------%------|-%-----%-----%-----%-----|-%------%------|---------------------9----11-------------|
D|-----------------%------|-%-----%-----%-----%-----|-%------%------|------9----11---12-----------------------|
A|------------------------|-------------------------|---------------|-12--------------------------------------|
E|-9----7----5------------|-------------------------|---------------|-----------------------------------------|

E|------9----10---12---10---9--------------|-----------------------------------------|
B|-12----------------------------12---10---|-9---------------------------------------|
G|-----------------------------------------|------11---9-----------------------------|
D|-----------------------------------------|----------------12---11---9--------------|
A|-----------------------------------------|-------------------------------12---11---|
E|-----------------------------------------|-----------------------------------------|

E|-----------------------------------------|---------------|-------------------------|
B|-----------------------------------------|---------------|-------------------------|
G|-----------------------------------------|--------%------|-%-----%-----%-----%-----|
D|-----------------------------------------|--------%------|-%-----%-----%-----%-----|
A|-9-----------------------------9----11---|-12------------|-------------------------|
E|------12---10---9----10---12-------------|---------------|-------------------------|

E|---------------|-----------------------------------------|----------------12---14---12-------------|
B|---------------|-----------------------------------------|-12---14---15------------------15---14---|
G|-%------%------|--------------------------11---13---14---|-----------------------------------------|
D|-%------%------|-----------11---12---14------------------|-----------------------------------------|
A|---------------|-12---14---------------------------------|-----------------------------------------|
E|---------------|-----------------------------------------|-----------------------------------------|

E|-----------------------------------------|-----------------------------------------|
B|-12--------------------------------------|-----------------------------------------|
G|------14---13---11-----------------------|-----------------------------------------|
D|---------------------14---12---11--------|-----------------------------------------|
A|------------------------------------14---|-12---11----------------------------11---|
E|-----------------------------------------|-----------14---12---10---12---14--------|

E|---------------|-------------------------|---------------|-----------------------------------------|
B|---------------|-------------------------|---------------|-----------------------------------------|
G|--------%------|-%-----%-----%-----%-----|-%------%------|-------------------------------13---14---|
D|--------%------|-%-----%-----%-----%-----|-%------%------|----------------12---14---16-------------|
A|-12------------|-------------------------|---------------|-12---14---16----------------------------|
E|---------------|-------------------------|---------------|-----------------------------------------|

E|---------------------14---16---17---16---|-14--------------------------------------|
B|------14---15---17-----------------------|------17---15---14-----------------------|
G|-16--------------------------------------|---------------------16---14---13--------|
D|-----------------------------------------|------------------------------------16---|
A|-----------------------------------------|-----------------------------------------|
E|-----------------------------------------|-----------------------------------------|

E|-----------------------------------------|------------------------|-----------------------------------------|
B|-----------------------------------------|------------------------|-----------------------------------------|
G|-----------------------------------------|-----------------%------|-%----%----%----%----%----%----%----%----|
D|-14---12---------------------------------|-----------------%------|-%----%----%----%----%----%----%----%----|
A|-----------16---14---12------------------|-----------12-----------|-----------------------------------------|
E|--------------------------16---14---12---|-14---16----------------|-----------------------------------------|

E|-----------------------------------------|-------------------------|-------------------------------------------------------------|
B|-----------------------------------------|-------------------------|-------------------------------------------------------------|
G|-%----%----%----%----%----%----%----%----|-%-----%-----%-----%-----|-------------------------------------------------------------|
D|-%----%----%----%----%----%----%----%----|-%-----%-----%-----%-----|--------------------------------------------------------4----|
A|-----------------------------------------|-------------------------|-----------4---------4----5----4----5----7----5----7---------|
E|-----------------------------------------|-------------------------|-5----7---------7--------------------------------------------|

E|-------------------------------------------------------------|--------------------------------------------------------4----|
B|-------------------------------------------------------------|--------------------------5---------5----7----5----7---------|
G|-----------------------------------------4---------4----6----|-4----6----7----6----7---------7-----------------------------|
D|------4----6----4----6----7----6----7---------7--------------|-------------------------------------------------------------|
A|-7-----------------------------------------------------------|-------------------------------------------------------------|
E|-------------------------------------------------------------|-------------------------------------------------------------|

E|------4----5----4----5----7----5------|-------------------------|-----------------------------------------------------------------|
B|-7------------------------------------|-------------------------|-----------------------------------------------------------------|
G|--------------------------------------|-%-----%-----%-----%-----|-----------------------------------------------------------------|
D|--------------------------------------|-%-----%-----%-----%-----|---------------------------------------------------------4-------|
A|--------------------------------------|-------------------------|---------4-----------4---5-------4---5---7---4---5---7-------5---|
E|--------------------------------------|-------------------------|-5---7-------5---7-----------7-----------------------------------|

E|-----------------------------------------------------------------|---------------------------------------------------------4-------|
B|-----------------------------------------------------------------|-------------------------5-----------5---7-------5---7-------5---|
G|-----------------------------------------4-----------4---6-------|-4---6---7---4---6---7-------6---7-----------7-------------------|
D|-----4---6-------4---6---7---4---6---7-------6---7-----------7---|-----------------------------------------------------------------|
A|-7-----------7---------------------------------------------------|-----------------------------------------------------------------|
E|-----------------------------------------------------------------|-----------------------------------------------------------------|

E|-----4---5-------4---5---7---4---5------|-------------------------|-----------------------------------------------------------------|
B|-7-----------7--------------------------|-------------------------|-----------------------------------------------------------------|
G|----------------------------------------|-%-----%-----%-----%-----|-----------------------------------------------------------------|
D|----------------------------------------|-%-----%-----%-----%-----|-----------------------------------------------------4-----------|
A|----------------------------------------|-------------------------|-----4---------------5---4-------4---7---5---4---5-------7---5---|
E|----------------------------------------|-------------------------|-5-------7---5---7-----------7-----------------------------------|

E|-----------------------------------------------------------------|-----------------------------------------------------4-----------|
B|-----------------------------------------------------------------|---------------------5---------------7---5-------5-------7---5---|
G|-------------------------------------4---------------6---4-------|-4---7---6---4---6-------7---6---7-----------7-------------------|
D|-----6---4-------4---7---6---4---6-------7---6---7-----------7---|-----------------------------------------------------------------|
A|-7-----------7---------------------------------------------------|-----------------------------------------------------------------|
E|-----------------------------------------------------------------|-----------------------------------------------------------------|

E|-----5---4-------5---7---5---4---5------|-----------------------------------------|
B|-7-----------7--------------------------|-----------------------------------------|
G|----------------------------------------|-%----%----%----%----%----%----%----%----|
D|----------------------------------------|-%----%----%----%----%----%----%----%----|
A|----------------------------------------|-----------------------------------------|
E|----------------------------------------|-----------------------------------------|

E|-----------------------------------------------------------------|-----------------------------------------------------------------|
B|-----------------------------------------------------------------|-----------------------------------------------------------------|
G|-----------------------------------------------------------------|-----------------------------4-----------4---6-------4---6---7---|
D|---------------------------------------------4-----------4---6---|-----4---6---7---4---6---7-------6---7-----------7---------------|
A|---------4---5-------4---5---7---4---5---7-------5---7-----------|-7---------------------------------------------------------------|
E|-5---7-----------7-----------------------------------------------|-----------------------------------------------------------------|

E|---------------------------------------------4-----------4---5---|-----4---5---7---5-------|
B|-------------5-----------5---7-------5---7-------5---7-----------|-7-----------------------|
G|-4---6---7-------6---7-----------7-------------------------------|-------------------------|
D|-----------------------------------------------------------------|-------------------------|
A|-----------------------------------------------------------------|-------------------------|
E|-----------------------------------------------------------------|-------------------------|
major scale through the whole guitar
major_scale_through_the_whole_guitar.gp3