Metallica - 53rd & 3rd

Metallica - 53rd & 3rd

Metallica



Title: 53rd & 3rd
Album: A Tribute To Ramones - We're A Happy Family
Artist: MetallicA
Author: The Outlaw Torn

Track 1: Guitar Chords
E|-0----0----0----0----0-----0-----|-2-----2-----0-----0-----|-0----0----0----0----0-----0-----|
B|-0----0----0----0----0-----0-----|-3-----3-----2-----2-----|-0----0----0----0----0-----0-----|
G|-1----1----1----1----1-----1-----|-2-----2-----2-----2-----|-1----1----1----1----1-----1-----|
D|-2----2----2----2----2-----2-----|-0-----0-----2-----2-----|-2----2----2----2----2-----2-----|
A|-2----2----2----2----2-----2-----|-------------0-----0-----|-2----2----2----2----2-----2-----|
E|-0----0----0----0----0-----0-----|-------------------------|-0----0----0----0----0-----0-----|

E|-2-----2-----0-----0-----|-0----0----0----0----0-----0-----|-2-----2-----0-----0-----|
B|-3-----3-----2-----2-----|-0----0----0----0----0-----0-----|-3-----3-----2-----2-----|
G|-2-----2-----2-----2-----|-1----1----1----1----1-----1-----|-2-----2-----2-----2-----|
D|-0-----0-----2-----2-----|-2----2----2----2----2-----2-----|-0-----0-----2-----2-----|
A|-------------0-----0-----|-2----2----2----2----2-----2-----|-------------0-----0-----|
E|-------------------------|-0----0----0----0----0-----0-----|-------------------------|

E|-0----0----0----0----0-----0-----|-2-----2-----0-----0-----|-0----0----0----0----0-----0-----|
B|-0----0----0----0----0-----0-----|-3-----3-----2-----2-----|-0----0----0----0----0-----0-----|
G|-1----1----1----1----1-----1-----|-2-----2-----2-----2-----|-1----1----1----1----1-----1-----|
D|-2----2----2----2----2-----2-----|-0-----0-----2-----2-----|-2----2----2----2----2-----2-----|
A|-2----2----2----2----2-----2-----|-------------0-----0-----|-2----2----2----2----2-----2-----|
E|-0----0----0----0----0-----0-----|-------------------------|-0----0----0----0----0-----0-----|

E|-2-----2-----0-----0-----|-0----0----0----0----0-----0-----|-2-----2-----0-----0-----|
B|-3-----3-----2-----2-----|-0----0----0----0----0-----0-----|-3-----3-----2-----2-----|
G|-2-----2-----2-----2-----|-1----1----1----1----1-----1-----|-2-----2-----2-----2-----|
D|-0-----0-----2-----2-----|-2----2----2----2----2-----2-----|-0-----0-----2-----2-----|
A|-------------0-----0-----|-2----2----2----2----2-----2-----|-------------0-----0-----|
E|-------------------------|-0----0----0----0----0-----0-----|-------------------------|

E|-0----0----0----0----0-----0-----|-2-----2-----0-----0-----|-0----0----0----0----0-----0-----|
B|-0----0----0----0----0-----0-----|-3-----3-----2-----2-----|-0----0----0----0----0-----0-----|
G|-1----1----1----1----1-----1-----|-2-----2-----2-----2-----|-1----1----1----1----1-----1-----|
D|-2----2----2----2----2-----2-----|-0-----0-----2-----2-----|-2----2----2----2----2-----2-----|
A|-2----2----2----2----2-----2-----|-------------0-----0-----|-2----2----2----2----2-----2-----|
E|-0----0----0----0----0-----0-----|-------------------------|-0----0----0----0----0-----0-----|

E|-2-----2-----0-----0-----|-2------0------|-3------0------|-2------0------|-3------0------|
B|-3-----3-----2-----2-----|-3------2------|-0------2------|-3------2------|-0------2------|
G|-2-----2-----2-----2-----|-2------2------|-0------2------|-2------2------|-0------2------|
D|-0-----0-----2-----2-----|-0------2------|-0------2------|-0------2------|-0------2------|
A|-------------0-----0-----|--------0------|-2------0------|--------0------|-2------0------|
E|-------------------------|---------------|-3-------------|---------------|-3-------------|

E|-2------0------|-3------0------|-2------0------|-3------0------|-0----0----0----0----0-----0-----|
B|-3------2------|-0------2------|-3------2------|-0------2------|-0----0----0----0----0-----0-----|
G|-2------2------|-0------2------|-2------2------|-0------2------|-1----1----1----1----1-----1-----|
D|-0------2------|-0------2------|-0------2------|-0------2------|-2----2----2----2----2-----2-----|
A|--------0------|-2------0------|--------0------|-2------0------|-2----2----2----2----2-----2-----|
E|---------------|-3-------------|---------------|-3-------------|-0----0----0----0----0-----0-----|

E|-2-----2-----0-----0-----|-0----0----0----0----0-----0-----|-2-----2-----0-----0-----|
B|-3-----3-----2-----2-----|-0----0----0----0----0-----0-----|-3-----3-----2-----2-----|
G|-2-----2-----2-----2-----|-1----1----1----1----1-----1-----|-2-----2-----2-----2-----|
D|-0-----0-----2-----2-----|-2----2----2----2----2-----2-----|-0-----0-----2-----2-----|
A|-------------0-----0-----|-2----2----2----2----2-----2-----|-------------0-----0-----|
E|-------------------------|-0----0----0----0----0-----0-----|-------------------------|

E|-0----0----0----0----0-----0-----|-2-----2-----0-----0-----|-0----0----0----0----0-----0-----|
B|-0----0----0----0----0-----0-----|-3-----3-----2-----2-----|-0----0----0----0----0-----0-----|
G|-1----1----1----1----1-----1-----|-2-----2-----2-----2-----|-1----1----1----1----1-----1-----|
D|-2----2----2----2----2-----2-----|-0-----0-----2-----2-----|-2----2----2----2----2-----2-----|
A|-2----2----2----2----2-----2-----|-------------0-----0-----|-2----2----2----2----2-----2-----|
E|-0----0----0----0----0-----0-----|-------------------------|-0----0----0----0----0-----0-----|

E|-2-----2-----0-----0-----|-2------0------|-3------0------|-2------0------|-3------0------|
B|-3-----3-----2-----2-----|-3------2------|-0------2------|-3------2------|-0------2------|
G|-2-----2-----2-----2-----|-2------2------|-0------2------|-2------2------|-0------2------|
D|-0-----0-----2-----2-----|-0------2------|-0------2------|-0------2------|-0------2------|
A|-------------0-----0-----|--------0------|-2------0------|--------0------|-2------0------|
E|-------------------------|---------------|-3-------------|---------------|-3-------------|

E|-2------0------|-3------0------|-2------0------|-3------0------|-2----2----2----2----2----2----2-----|
B|-3------2------|-0------2------|-3------2------|-0------2------|-0----0----0----0----0----0----0-----|
G|-2------2------|-0------2------|-2------2------|-0------2------|-------------------------------------|
D|-0------2------|-0------2------|-0------2------|-0------2------|-1----1----1----1----1----1----1-----|
A|--------0------|-2------0------|--------0------|-2------0------|-2----2----2----2----2----2----2-----|
E|---------------|-3-------------|---------------|-3-------------|-------------------------------------|

E|-0-----0-----0-----0-----|-2----2----2----2----2----2----2-----|-0-----0-----0-----0-----|
B|-2-----2-----2-----2-----|-0----0----0----0----0----0----0-----|-2-----2-----2-----2-----|
G|-2-----2-----2-----2-----|-------------------------------------|-2-----2-----2-----2-----|
D|-2-----2-----2-----2-----|-1----1----1----1----1----1----1-----|-2-----2-----2-----2-----|
A|-0-----0-----0-----0-----|-2----2----2----2----2----2----2-----|-0-----0-----0-----0-----|
E|-------------------------|-------------------------------------|-------------------------|

E|-3----3----3----3----3----3----3-----|-0-----0-----0-----0-----|-3----3----3----3----3----3----3-----|
B|-0----0----0----0----0----0----0-----|-2-----2-----2-----2-----|-0----0----0----0----0----0----0-----|
G|-0----0----0----0----0----0----0-----|-2-----2-----2-----2-----|-0----0----0----0----0----0----0-----|
D|-0----0----0----0----0----0----0-----|-2-----2-----2-----2-----|-0----0----0----0----0----0----0-----|
A|-2----2----2----2----2----2----2-----|-0-----0-----0-----0-----|-2----2----2----2----2----2----2-----|
E|-3----3----3----3----3----3----3-----|-------------------------|-3----3----3----3----3----3----3-----|

E|-0-----0-----0-----0-----|-4------4------|-0------2------|-4------4------|-0------2------|
B|-2-----2-----2-----2-----|-5------5------|-2------0------|-5------5------|-2------0------|
G|-2-----2-----2-----2-----|-1------1------|-2-------------|-1------1------|-2-------------|
D|-2-----2-----2-----2-----|---------------|-2------1------|---------------|-2------1------|
A|-0-----0-----0-----0-----|-2------2------|-0------2------|-2------2------|-0------2------|
E|-------------------------|-0------0------|---------------|-0------0------|---------------|

E|-4------4------|-0------2------|-4------4------|-0------2------|-0----0----0----0----0-----0-----|
B|-5------5------|-2------0------|-5------5------|-2------0------|-0----0----0----0----0-----0-----|
G|-1------1------|-2-------------|-1------1------|-2-------------|-1----1----1----1----1-----1-----|
D|---------------|-2------1------|---------------|-2------1------|-2----2----2----2----2-----2-----|
A|-2------2------|-0------2------|-2------2------|-0------2------|-2----2----2----2----2-----2-----|
E|-0------0------|---------------|-0------0------|---------------|-0----0----0----0----0-----0-----|

E|-2-----2-----0-----0-----|-0----0----0----0----0-----0-----|-2-----2-----0-----0-----|
B|-3-----3-----2-----2-----|-0----0----0----0----0-----0-----|-3-----3-----2-----2-----|
G|-2-----2-----2-----2-----|-1----1----1----1----1-----1-----|-2-----2-----2-----2-----|
D|-0-----0-----2-----2-----|-2----2----2----2----2-----2-----|-0-----0-----2-----2-----|
A|-------------0-----0-----|-2----2----2----2----2-----2-----|-------------0-----0-----|
E|-------------------------|-0----0----0----0----0-----0-----|-------------------------|

E|-0----0----0----0----0-----0-----|-2-----2-----0-----0-----|-0----0----0----0----0-----0-----|
B|-0----0----0----0----0-----0-----|-3-----3-----2-----2-----|-0----0----0----0----0-----0-----|
G|-1----1----1----1----1-----1-----|-2-----2-----2-----2-----|-1----1----1----1----1-----1-----|
D|-2----2----2----2----2-----2-----|-0-----0-----2-----2-----|-2----2----2----2----2-----2-----|
A|-2----2----2----2----2-----2-----|-------------0-----0-----|-2----2----2----2----2-----2-----|
E|-0----0----0----0----0-----0-----|-------------------------|-0----0----0----0----0-----0-----|

E|-2-----2-----0-----0-----|-0----0----0----0----0-----0-----|-2-----2-----0-----0-----|
B|-3-----3-----2-----2-----|-0----0----0----0----0-----0-----|-3-----3-----2-----2-----|
G|-2-----2-----2-----2-----|-1----1----1----1----1-----1-----|-2-----2-----2-----2-----|
D|-0-----0-----2-----2-----|-2----2----2----2----2-----2-----|-0-----0-----2-----2-----|
A|-------------0-----0-----|-2----2----2----2----2-----2-----|-------------0-----0-----|
E|-------------------------|-0----0----0----0----0-----0-----|-------------------------|

E|-0----0----0----0----0-----0-----|-2-----2-----0-----0-----|-0----0----0----0----0-----0-----|
B|-0----0----0----0----0-----0-----|-3-----3-----2-----2-----|-0----0----0----0----0-----0-----|
G|-1----1----1----1----1-----1-----|-2-----2-----2-----2-----|-1----1----1----1----1-----1-----|
D|-2----2----2----2----2-----2-----|-0-----0-----2-----2-----|-2----2----2----2----2-----2-----|
A|-2----2----2----2----2-----2-----|-------------0-----0-----|-2----2----2----2----2-----2-----|
E|-0----0----0----0----0-----0-----|-------------------------|-0----0----0----0----0-----0-----|

E|-2-----2-----0-----0-----|-0----0----0----0----0-----0-----|-2-----2-----0-----0-----|
B|-3-----3-----2-----2-----|-0----0----0----0----0-----0-----|-3-----3-----2-----2-----|
G|-2-----2-----2-----2-----|-1----1----1----1----1-----1-----|-2-----2-----2-----2-----|
D|-0-----0-----2-----2-----|-2----2----2----2----2-----2-----|-0-----0-----2-----2-----|
A|-------------0-----0-----|-2----2----2----2----2-----2-----|-------------0-----0-----|
E|-------------------------|-0----0----0----0----0-----0-----|-------------------------|

E|---------------------0------|
B|---------------------0------|
G|---------------------1------|
D|---------------------2------|
A|-2----2----2----2----2------|
E|-0----0----0----0----0------|
Metallica - 53rd & 3rd
Metallica - 53rd & 3rd.gp3