Metallica - 53rd And 3rd (2)

Metallica - 53rd And 3rd (2)

Metallica



Title: 53rd And 3rd
Album: The Unnamed Feeling E.P. [2004]
Artist: Metallica
Author: James Hetfield

Track 1: James Hetfield [lead guitar]
E|---------|-------------------------------------|-------------------------|-------------------------------------|
B|---------|-------------------------------------|-3-----3-----------------|-------------------------------------|
G|-%-------|-------------------------------------|-2-----2-----2-----2-----|-------------------------------------|
D|-%-------|---------------------2---------------|-0-----0-----2-----2-----|---------------------2---------------|
A|---------|---------------------2-----2----2----|-------------0-----0-----|---------------------2-----2----2----|
E|---------|-0----0----0----0----0-----0----0----|-------------------------|-0----0----0----0----0-----0----0----|

E|-------------------------|-------------------------------------|-------------------------|
B|-3-----3-----------------|-------------------------------------|-3-----3-----------------|
G|-2-----2-----2-----2-----|-------------------------------------|-2-----2-----2-----2-----|
D|-0-----0-----2-----2-----|---------------------2---------------|-0-----0-----2-----2-----|
A|-------------0-----0-----|---------------------2-----2----2----|-------------0-----0-----|
E|-------------------------|-0----0----0----0----0-----0----0----|-------------------------|

E|-------------------------------------|-------------------------|-------------------------------------|
B|-------------------------------------|-3-----3-----------------|-------------------------------------|
G|-------------------------------------|-2-----2-----2-----2-----|-------------------------------------|
D|---------------------2---------------|-0-----0-----2-----2-----|---------------------2---------------|
A|---------------------2-----2----2----|-------------0-----0-----|---------------------2---------------|
E|-0----0----0----0----0-----0----0----|-------------------------|-0----0----0----0----0-----0----0----|

E|-------------------------|-------------------------------------|-------------------------|
B|-3-----3-----------------|-------------------------------------|-3-----3-----------------|
G|-2-----2-----2-----2-----|-------------------------------------|-2-----2-----2-----2-----|
D|-0-----0-----2-----2-----|---------------------2---------------|-0-----0-----2-----2-----|
A|-------------0-----0-----|---------------------2---------------|-------------0-----0-----|
E|-------------------------|-0----0----0----0----0-----0----0----|-------------------------|

E|-------------------------------------|-------------------------|-------------------------------------|
B|-------------------------------------|-3-----3-----------------|-------------------------------------|
G|-------------------------------------|-2-----2-----2-----2-----|-------------------------------------|
D|---------------------2---------------|-0-----0-----2-----2-----|---------------------2---------------|
A|---------------------2---------------|-------------0-----0-----|---------------------2---------------|
E|-0----0----0----0----0-----0----0----|-------------------------|-0----0----0----0----0-----0----0----|

E|-------------------------|---------------|---------------|---------------|---------------|
B|-3-----3-----------------|---------------|---------------|---------------|---------------|
G|-2-----2-----2-----2-----|-7-------------|---------------|-7-------------|---------------|
D|-0-----0-----2-----2-----|-7------7------|-5------7------|-7------7------|-5------7------|
A|-------------0-----0-----|-5------7------|-5------7------|-5------7------|-5------7------|
E|-------------------------|--------5------|-3------5------|--------5------|-3------5------|

E|---------------|---------------|---------------|---------------|-------------------------------------|
B|---------------|---------------|---------------|---------------|-------------------------------------|
G|-7-------------|---------------|-7-------------|---------------|-------------------------------------|
D|-7------7------|-5------7------|-7------7------|-5------7------|---------------------2---------------|
A|-5------7------|-5------7------|-5------7------|-5------7------|---------------------2---------------|
E|--------5------|-3------5------|--------5------|-3------5------|-0----0----0----0----0-----0----0----|

E|-------------------------|-------------------------------------|-------------------------|
B|-3-----3-----------------|-------------------------------------|-3-----3-----------------|
G|-2-----2-----2-----2-----|-------------------------------------|-2-----2-----2-----2-----|
D|-0-----0-----2-----2-----|---------------------2---------------|-0-----0-----2-----2-----|
A|-------------0-----0-----|---------------------2---------------|-------------0-----0-----|
E|-------------------------|-0----0----0----0----0-----0----0----|-------------------------|

E|-------------------------------------|-------------------------|-------------------------------------|
B|-------------------------------------|-3-----3-----------------|-------------------------------------|
G|-------------------------------------|-2-----2-----2-----2-----|-------------------------------------|
D|---------------------2---------------|-0-----0-----2-----2-----|---------------------2---------------|
A|---------------------2---------------|-------------0-----0-----|---------------------2---------------|
E|-0----0----0----0----0-----0----0----|-------------------------|-0----0----0----0----0-----0----0----|

E|-------------------------|---------------|---------------|---------------|---------------|
B|-3-----3-----------------|---------------|---------------|---------------|---------------|
G|-2-----2-----2-----2-----|-7-------------|---------------|-7-------------|---------------|
D|-0-----0-----2-----2-----|-7------7------|-5------7------|-7------7------|-5------7------|
A|-------------0-----0-----|-5------7------|-5------7------|-5------7------|-5------7------|
E|-------------------------|--------5------|-3------5------|--------5------|-3------5------|

E|---------------|---------------|---------------|---------------|-------------------------|
B|---------------|---------------|---------------|---------------|-------------------------|
G|-7-------------|---------------|-7-------------|---------------|-------------------------|
D|-7------7------|-5------7------|-7------7------|-5------7------|-9-----9-----9-----9-----|
A|-5------7------|-5------7------|-5------7------|-5------7------|-9-----9-----9-----9-----|
E|--------5------|-3------5------|--------5------|-3------5------|-7-----7-----7-----7-----|

E|-------------------------|-------------------------|-------------------------|-------------------------|
B|-------------------------|-------------------------|-------------------------|-------------------------|
G|-------------------------|-------------------------|-------------------------|-------------------------|
D|-7-----7-----7-----7-----|-9-----9-----9-----9-----|-7-----7-----7-----7-----|-9-----9-----9-----9-----|
A|-7-----7-----7-----7-----|-9-----9-----9-----9-----|-7-----7-----7-----7-----|-9-----9-----9-----9-----|
E|-5-----5-----5-----5-----|-7-----7-----7-----7-----|-5-----5-----5-----5-----|-7-----7-----7-----7-----|

E|-------------------------|-------------------------|-------------------------|---------------|
B|-------------------------|-------------------------|-------------------------|---------------|
G|-------------------------|-------------------------|-------------------------|-9-------------|
D|-7-----7-----7-----7-----|-5-----5-----5-----5-----|-7-----7-----7-----7-----|-9------9------|
A|-7-----7-----7-----7-----|-5-----5-----5-----5-----|-7-----7-----7-----7-----|-7------9------|
E|-5-----5-----5-----5-----|-3-----3-----3-----3-----|-5-----5-----5-----5-----|--------7------|

E|---------------|---------------|---------------|---------------|---------------|---------------|
B|---------------|---------------|---------------|---------------|---------------|---------------|
G|---------------|-9-------------|---------------|-9-------------|---------------|-9-------------|
D|-7------9------|-9------9------|-7------9------|-9------9------|-7------9------|-9------9------|
A|-7------9------|-7------9------|-7------9------|-7------9------|-7------9------|-7------9------|
E|-5------7------|--------7------|-5------7------|--------7------|-5------7------|--------7------|

E|---------------|-------------------------------------|-------------------------|-------------------------------------|
B|---------------|-------------------------------------|-3-----3-----------------|-------------------------------------|
G|---------------|-------------------------------------|-2-----2-----2-----2-----|-------------------------------------|
D|-7------9------|---------------------2---------------|-0-----0-----2-----2-----|---------------------2---------------|
A|-7------9------|---------------------2---------------|-------------0-----0-----|---------------------2---------------|
E|-5------7------|-0----0----0----0----0-----0----0----|-------------------------|-0----0----0----0----0-----0----0----|

E|-------------------------|-------------------------------------|-------------------------|
B|-3-----3-----------------|-------------------------------------|-3-----3-----------------|
G|-2-----2-----2-----2-----|-------------------------------------|-2-----2-----2-----2-----|
D|-0-----0-----2-----2-----|---------------------2---------------|-0-----0-----2-----2-----|
A|-------------0-----0-----|---------------------2---------------|-------------0-----0-----|
E|-------------------------|-0----0----0----0----0-----0----0----|-------------------------|

E|-------------------------------------|-------------------------|-------------------------------------|
B|-------------------------------------|-3-----3-----------------|-------------------------------------|
G|-------------------------------------|-2-----2-----2-----2-----|-------------------------------------|
D|---------------------2---------------|-0-----0-----2-----2-----|---------------------2---------------|
A|---------------------2---------------|-------------0-----0-----|---------------------2---------------|
E|-0----0----0----0----0-----0----0----|-------------------------|-0----0----0----0----0-----0----0----|

E|-------------------------|-------------------------------------|-------------------------|
B|-3-----3-----------------|-------------------------------------|-3-----3-----------------|
G|-2-----2-----2-----2-----|-------------------------------------|-2-----2-----2-----2-----|
D|-0-----0-----2-----2-----|---------------------2---------------|-0-----0-----2-----2-----|
A|-------------0-----0-----|---------------------2---------------|-------------0-----0-----|
E|-------------------------|-0----0----0----0----0-----0----0----|-------------------------|

E|-------------------------------------|-------------------------|---------|---------|
B|-------------------------------------|-3-----3-----------------|---------|---------|
G|-------------------------------------|-2-----2-----2-----2-----|---------|---------|
D|---------------------2---------------|-0-----0-----2-----2-----|-2-------|-2-------|
A|---------------------2---------------|-------------0-----0-----|-2-------|-2-------|
E|-0----0----0----0----0-----0----0----|-------------------------|-0-------|-0-------|
Metallica - 53rd And 3rd (2)
Metallica - 53rd And 3rd (2).gp4