Metallica - All Within My Hands (2)

Metallica - All Within My Hands (2)

Metallica



Title: All Within My Hands
Album: St Anger
Artist: Metallica
Author: James Hetfield, Kirk Hammet, Lars Ulrich, Bob Rock

Track 1: Guitar 1
 C|---------|---------|---------|---------------------------------|---------------------------------|
 G|---------|---------|---------|---------------------------------|---------------------------------|
D#|-%-------|-%-------|-%-------|---------------------------------|---------------------------------|
A#|-%-------|-%-------|-%-------|-4----4----------------3----3----|-3-------------------------------|
 F|---------|---------|---------|-2----2-----2----2-----1----1----|-1----2----2-----7----6----5-----|
 C|---------|---------|---------|------------0----0---------------|------0----0-----5----4----3-----|

 C|---------|---------|---------------------------------|------------------------|---------------------------------|
 G|---------|---------|---------------------------------|------------------------|---------------------------------|
D#|---------|---------|---------------------------------|-----------------%------|---------------------------------|
A#|---------|---------|-4----4----------------3----3----|-3---------------%------|-4----4----------------3----3----|
 F|-5-------|-5-------|-2----2-----2----2-----1----1----|-1----2----2------------|-2----2-----2----2-----1----1----|
 C|-3-------|-3-------|------------0----0---------------|------0----0------------|------------0----0---------------|

 C|-------------------------------------|---------------------------------|------------------------|
 G|-------------------------------------|---------------------------------|------------------------|
D#|-----------------X----X----X----X----|---------------------------------|------------------------|
A#|-3---------------X----X----X----X----|-4----4----------------3----3----|-3---------------12-----|
 F|-1----2----2-----X----X----X----X----|-2----2-----2----2-----1----1----|-1----2----2------------|
 C|------0----0-------------------------|------------0----0---------------|------0----0------------|

 C|---------------------------------|------------------------|---------------------------------|
 G|---------------------------------|------------------------|---------------------------------|
D#|---------------------------------|-----------------%------|---------------------------------|
A#|-4----4----------------3----3----|-3---------------%------|-4----4----------------3----3----|
 F|-2----2-----2----2-----1----1----|-1----2----2------------|-2----2-----2----2-----1----1----|
 C|------------0----0---------------|------0----0------------|------------0----0---------------|

 C|------------------------|---------------------------------|------------------------|
 G|------------------------|---------------------------------|------------------------|
D#|-----------------14-----|---------------------------------|-----------------%------|
A#|-3----------------------|-4----4----------------3----3----|-3---------------%------|
 F|-1----2----2------------|-2----2-----2----2-----1----1----|-1----2----2------------|
 C|------0----0------------|------------0----0---------------|------0----0------------|

 C|---------------------------------|------------------------|---------------------------------|
 G|---------------------------------|------------------------|---------------------------------|
D#|---------------------------------|-----------------%------|---------------------------------|
A#|-4----4----------------3----3----|-3---------------%------|-4----4----------------3----3----|
 F|-2----2-----2----2-----1----1----|-1----2----2------------|-2----2-----2----2-----1----1----|
 C|------------0----0---------------|------0----0------------|------------0----0---------------|

 C|-----------------------|---------|---------|---------------------------------|------------------------------|
 G|-----------------------|---------|---------|---------------------------------|------------------------------|
D#|-----------------%-----|---------|---------|---------------------------------|-----------------------%------|
A#|-3---------------%-----|-5-------|-5-------|----------------4-----4----------|-3----3----------------%------|
 F|-1----2----2-----------|-5-------|-5-------|----------------2-----2----2-----|-1----1-----2----2------------|
 C|------0----0-----------|-3-------|-3-------|-3----5----6---------------0-----|------------0----0------------|

 C|-10------|-10------------|---------------|---------|---------|---------------|---------------|
 G|---------|---------10----|-10----12------|-12------|-10------|-10------10----|-10----8-------|
D#|---------|---------------|---------------|---------|---------|---------------|---------------|
A#|---------|---------------|---------------|---------|---------|---------------|---------------|
 F|---------|---------------|---------------|---------|---------|---------------|---------------|
 C|---------|---------------|---------------|---------|---------|---------------|---------------|

 C|---------|-----------------------------------------|-----------------------------------------|
 G|-8-------|-----------------------------------------|-----------------------------------------|
D#|---------|-----------------------------------------|-----------------------------------------|
A#|---------|-----------------------------------------|-----------------------------------------|
 F|---------|-----------2----2--------------2----2----|-----------2----2--------------2----2----|
 C|---------|-5----5--------------0----0--------------|-0----0--------------0----0--------------|

 C|-----------------------------------------|-----------------------------------------|
 G|-----------------------------------------|-----------------------------------------|
D#|-----------------------------------------|-----------------------------------------|
A#|-----------------------------------------|-----------------------------------------|
 F|-----------------------------------------|-----------------------------------------|
 C|-0----0----2----2----0----0----2----2----|-0----0----2----2----0----0----2----2----|

 C|-----------------------------------------|-----------------------------------------|
 G|-----------------------------------------|-----------------------------------------|
D#|-----------------------------------------|-----------------------------------------|
A#|-----------------------------------------|-----------------------------------------|
 F|-----------2----2--------------2----2----|-----------2----2--------------2----2----|
 C|-5----5--------------0----0--------------|-0----0--------------0----0--------------|

 C|-----------------------------------------|-----------------------------------------|
 G|-----------------------------------------|-----------------------------------------|
D#|-----------------------------------------|-----------------------------------------|
A#|-----------------------------------------|-----------------------------------------|
 F|-----------2----2--------------2----2----|-----------2----2--------------2----2----|
 C|-5----5--------------0----0--------------|-0----0--------------0----0--------------|

 C|-----------------------------------------|-----------------------------------------|
 G|-----------0-------------------0---------|-----------0-------------------0---------|
D#|------0---------0---------0---------0----|------0---------0---------0---------0----|
A#|-2-------------------2-------------------|-2-------------------2-------------------|
 F|-----------------------------------------|-----------------------------------------|
 C|-----------------------------------------|-----------------------------------------|

 C|-----------------------------------------|-----------------------------------------|
 G|-----------------------------------------|-----------------------------------------|
D#|-----------4-------------------4---------|-----------4-------------------4---------|
A#|-2----4---------4----2----4---------4----|-2----4---------4----2----4---------4----|
 F|-----------------------------------------|-----------------------------------------|
 C|-----------------------------------------|-----------------------------------------|

 C|-----------------------------------------|-----------------------------------------|
 G|-----------0-------------------0---------|-----------0-------------------0---------|
D#|------2---------2---------2---------2----|------2---------2---------2---------2----|
A#|-2-------------------2-------------------|-2-------------------2-------------------|
 F|-----------------------------------------|-----------------------------------------|
 C|-----------------------------------------|-----------------------------------------|

 C|-----------------------------------------|-----------------------------------------|
 G|-----------0-------------------0---------|-----------------------------------------|
D#|------0---------0---------0---------0----|----------------%-------------------%----|
A#|-2-------------------2-------------------|-5----4----5----%----5----4----2----%----|
 F|-----------------------------------------|-----------------------------------------|
 C|-----------------------------------------|-----------------------------------------|

 C|------------------------|-------------------------------------|-----------------------------------------|
 G|------------------------|-------------------------------------|-----------------------------------------|
D#|------------%----%------|------------%---------%---------%----|------%---------%---------%---------%----|
A#|-0-----2----%----%------|-2-----5----%----5----%----5----%----|-5----%----5----%----5----%----5----%----|
 F|------------------------|-2-----5---------5---------5---------|-5---------5---------5---------5---------|
 C|------------------------|-0-----3---------3---------3---------|-3---------3---------3---------3---------|

 C|-------------------------------------|-----------------------------------------|
 G|-------------------------------------|-----------------------------------------|
D#|------------%---------%---------%----|------%---------%---------%---------%----|
A#|-5-----4----%----4----%----4----%----|-4----%----4----%----4----%----4----%----|
 F|-5-----4---------4---------4---------|-4---------4---------4---------4---------|
 C|-3-----2---------2---------2---------|-2---------2---------2---------2---------|

 C|-------------------------------------|-----------------------------------------|
 G|-------------------------------------|-----------------------------------------|
D#|------------%---------%---------%----|------%---------%---------%---------%----|
A#|-4-----7----%----7----%----7----%----|-7----%----7----%----7----%----7----%----|
 F|-4-----7---------7---------7---------|-7---------7---------7---------7---------|
 C|-2-----5---------5---------5---------|-5---------5---------5---------5---------|

 C|-------------------------------------|---------------------------------|-----------------------------------------|
 G|-------------------------------------|---------------------------------|-----------------------------------------|
D#|------------%---------%---------%----|---------------------------------|-----------------------------------------|
A#|-7-----5----%----5----%----5----%----|-5----4----5-----5----4----5-----|-----------------------------------------|
 F|-7-----5---------5---------5---------|-5----4----5-----5----4----5-----|-----------------------------------------|
 C|-5-----3---------3---------3---------|-3----2----3-----3----2----3-----|-5----6----7----0----5----6----7----0----|

 C|-----------------------------------------|-----------------------------------------|
 G|-----------------------------------------|-----------------------------------------|
D#|-----------------------------------------|-----------------------------------------|
A#|-----------------------------------------|-----------------------------------------|
 F|-----------------------------------------|-----------------------------------------|
 C|-3----5----5----0----0----0----0----0----|-5----6----7----0----5----6----7----0----|

 C|-----------------------------------------|-----------------------------------------|
 G|-----------------------------------------|-----------------------------------------|
D#|-----------------------------------------|-----------------------------------------|
A#|-----------------------------------------|-----------------------------------------|
 F|-----------------------------------------|-----------------------------------------|
 C|-3----5----5----0----0----0----0----0----|-5----6----7----5----5----6----7----3----|

 C|-----------------------------------------|-------------------------|-------------------------|
 G|-----------------------------------------|-------------------------|-------------------------|
D#|-----------------------------------------|-------------------------|-------------------------|
A#|-----------------------------------------|-7-----8-----9-----2-----|-2-----7-----9-----5-----|
 F|-----------------------------------------|-7-----8-----9-----2-----|-2-----7-----9-----5-----|
 C|-3----5----5----1----1----1----1----1----|-5-----6-----7-----0-----|-0-----5-----7-----3-----|

 C|-------------------------|-X-----------------------|---------------------------------|
 G|-------------------------|-X-----------------------|---------------------------------|
D#|-------------------------|-X-----------------------|---------------------------------|
A#|-5-----------------------|-X-----------------------|-4----4----------------3----3----|
 F|-5-----------------------|-X-----------------------|-2----2-----2----2-----1----1----|
 C|-3-----5-----5-----3-----|-X-----5-----5-----3-----|------------0----0---------------|

 C|---------------------------------|---------|---------|-------------------------|
 G|---------------------------------|---------|---------|-------------------------|
D#|---------------------------------|---------|---------|-------------------------|
A#|-3-------------------------------|---------|---------|-7-----8-----9-----2-----|
 F|-1----2----2-----7----6----5-----|-5-------|-5-------|-7-----8-----9-----2-----|
 C|------0----0-----5----4----3-----|-3-------|-3-------|-5-----6-----7-----0-----|

 C|-------------------------|-------------------------|-X-----------------------|--------------------|
 G|-------------------------|-------------------------|-X-----------------------|--------------------|
D#|-------------------------|-------------------------|-X-----------------------|-------%------------|
A#|-2-----7-----9-----5-----|-5-----------------------|-X-----------------------|-2-----%-----2------|
 F|-2-----7-----9-----5-----|-5-----------------------|-X-----------------------|-2-----------2------|
 C|-0-----5-----7-----3-----|-3-----5-----5-----3-----|-X-----5-----5-----3-----|-0-----------0------|

 C|--------------------|--------------------|---------------|--------------------|--------------------|
 G|--------------------|--------------------|---------------|--------------------|--------------------|
D#|-%------%-----------|-------%------------|-------%-------|-------%------------|-%------%-----------|
A#|-%------%-----2-----|-2-----%------2-----|-2-----%-------|-2-----%-----2------|-%------%-----2-----|
 F|--------------2-----|-2------------2-----|-2-------------|-2-----------2------|--------------2-----|
 C|--------------0-----|-0------------0-----|-0-------------|-0-----------0------|--------------0-----|

 C|--------------------|---------------|--------------------|---------|---------------------------------|
 G|--------------------|---------------|--------------------|---------|---------------------------------|
D#|-------%------------|-------%-------|-------%------------|---------|---------------------------------|
A#|-2-----%------2-----|-2-----%-------|-2-----%-----2------|-2-------|-4----4----------------3----3----|
 F|-2------------2-----|-2-------------|-2-----------2------|-2-------|-2----2-----2----2-----1----1----|
 C|-0------------0-----|-0-------------|-0-----------0------|-0-------|------------0----0---------------|

 C|------------------------|---------------------------------|------------------------|
 G|------------------------|---------------------------------|------------------------|
D#|-----------------14-----|---------------------------------|-----------------%------|
A#|-3----------------------|-4----4----------------3----3----|-3---------------%------|
 F|-1----2----2------------|-2----2-----2----2-----1----1----|-1----2----2------------|
 C|------0----0------------|------------0----0---------------|------0----0------------|

 C|---------------------------------|------------------------|-10------|-10------------|
 G|---------------------------------|------------------------|---------|---------10----|
D#|---------------------------------|-----------------%------|---------|---------------|
A#|-4----4----------------3----3----|-3---------------%------|---------|---------------|
 F|-2----2-----2----2-----1----1----|-1----2----2------------|---------|---------------|
 C|------------0----0---------------|------0----0------------|---------|---------------|

 C|---------------|---------|---------|---------------|---------------|---------|-----------------------------------------|
 G|-10----12------|-12------|-10------|-10------10----|-10----8-------|-8-------|-----------------------------------------|
D#|---------------|---------|---------|---------------|---------------|---------|-----------------------------------------|
A#|---------------|---------|---------|---------------|---------------|---------|-----------------------------------------|
 F|---------------|---------|---------|---------------|---------------|---------|-----------2----2--------------2----2----|
 C|---------------|---------|---------|---------------|---------------|---------|-5----5--------------0----0--------------|

 C|-----------------------------------------|-----------------------------------------|
 G|-----------------------------------------|-----------------------------------------|
D#|-----------------------------------------|-----------------------------------------|
A#|-----------------------------------------|-----------------------------------------|
 F|-----------2----2--------------2----2----|-----------------------------------------|
 C|-0----0--------------0----0--------------|-0----0----2----2----0----0----2----2----|

 C|-----------------------------------------|-----------------------------------------|
 G|-----------------------------------------|-----------------------------------------|
D#|-----------------------------------------|-----------------------------------------|
A#|-----------------------------------------|-----------------------------------------|
 F|-----------------------------------------|-----------2----2--------------2----2----|
 C|-0----0----2----2----0----0----2----2----|-5----5--------------0----0--------------|

 C|-----------------------------------------|-----------------------------------------|
 G|-----------------------------------------|-----------------------------------------|
D#|-----------------------------------------|-----------------------------------------|
A#|-----------------------------------------|-----------------------------------------|
 F|-----------2----2--------------2----2----|-----------2----2--------------2----2----|
 C|-0----0--------------0----0--------------|-5----5--------------0----0--------------|

 C|-----------------------------------------|-----------------------------------------|
 G|-----------------------------------------|-----------0-------------------0---------|
D#|-----------------------------------------|------0---------0---------0---------0----|
A#|-----------------------------------------|-2-------------------2-------------------|
 F|-----------2----2--------------2----2----|-----------------------------------------|
 C|-0----0--------------0----0--------------|-----------------------------------------|

 C|-----------------------------------------|-----------------------------------------|
 G|-----------0-------------------0---------|-----------------------------------------|
D#|------0---------0---------0---------0----|-----------4-------------------4---------|
A#|-2-------------------2-------------------|-2----4---------4----2----4---------4----|
 F|-----------------------------------------|-----------------------------------------|
 C|-----------------------------------------|-----------------------------------------|

 C|-----------------------------------------|-----------------------------------------|
 G|-----------------------------------------|-----------0-------------------0---------|
D#|-----------4-------------------4---------|------2---------2---------2---------2----|
A#|-2----4---------4----2----4---------4----|-2-------------------2-------------------|
 F|-----------------------------------------|-----------------------------------------|
 C|-----------------------------------------|-----------------------------------------|

 C|-----------------------------------------|-----------------------------------------|
 G|-----------0-------------------0---------|-----------0-------------------0---------|
D#|------2---------2---------2---------2----|------0---------0---------0---------0----|
A#|-2-------------------2-------------------|-2-------------------2-------------------|
 F|-----------------------------------------|-----------------------------------------|
 C|-----------------------------------------|-----------------------------------------|

 C|-----------------------------------------|------------------------|-------------------------------------|
 G|-----------------------------------------|------------------------|-------------------------------------|
D#|----------------%-------------------%----|------------%----%------|------------%---------%---------%----|
A#|-5----4----5----%----5----4----2----%----|-0-----2----%----%------|-2-----5----%----5----%----5----%----|
 F|-----------------------------------------|------------------------|-2-----5---------5---------5---------|
 C|-----------------------------------------|------------------------|-0-----3---------3---------3---------|

 C|-----------------------------------------|-------------------------------------|
 G|-----------------------------------------|-------------------------------------|
D#|------%---------%---------%---------%----|------------%---------%---------%----|
A#|-5----%----5----%----5----%----5----%----|-5-----4----%----4----%----4----%----|
 F|-5---------5---------5---------5---------|-5-----4---------4---------4---------|
 C|-3---------3---------3---------3---------|-3-----2---------2---------2---------|

 C|-----------------------------------------|-------------------------------------|
 G|-----------------------------------------|-------------------------------------|
D#|------%---------%---------%---------%----|------------%---------%---------%----|
A#|-4----%----4----%----4----%----4----%----|-4-----7----%----7----%----7----%----|
 F|-4---------4---------4---------4---------|-4-----7---------7---------7---------|
 C|-2---------2---------2---------2---------|-2-----5---------5---------5---------|

 C|-----------------------------------------|-------------------------------------|
 G|-----------------------------------------|-------------------------------------|
D#|------%---------%---------%---------%----|------------%---------%---------%----|
A#|-7----%----7----%----7----%----7----%----|-7-----5----%----5----%----5----%----|
 F|-7---------7---------7---------7---------|-7-----5---------5---------5---------|
 C|-5---------5---------5---------5---------|-5-----3---------3---------3---------|

 C|---------------------------------|-----------------------------------------|-----------------------------------------|
 G|---------------------------------|-----------------------------------------|-----------------------------------------|
D#|---------------------------------|-----------------------------------------|-----------------------------------------|
A#|-5----4----5-----5----4----5-----|-----------------------------------------|-----------------------------------------|
 F|-5----4----5-----5----4----5-----|-----------------------------------------|-----------------------------------------|
 C|-3----2----3-----3----2----3-----|-5----6----7----0----5----6----7----0----|-3----5----5----0----0----0----0----0----|

 C|-----------------------------------------|-----------------------------------------|
 G|-----------------------------------------|-----------------------------------------|
D#|-----------------------------------------|-----------------------------------------|
A#|-----------------------------------------|-----------------------------------------|
 F|-----------------------------------------|-----------------------------------------|
 C|-5----6----7----0----5----6----7----0----|-3----5----5----0----0----0----0----0----|

 C|-----------------------------------------|-----------------------------------------|
 G|-----------------------------------------|-----------------------------------------|
D#|-----------------------------------------|-----------------------------------------|
A#|-----------------------------------------|-----------------------------------------|
 F|-----------------------------------------|-----------------------------------------|
 C|-5----6----7----5----5----6----7----3----|-3----5----5----1----1----1----1----1----|

 C|-------------------------|-------------------------|-------------------------|-X-----------------------|
 G|-------------------------|-------------------------|-------------------------|-X-----------------------|
D#|-------------------------|-------------------------|-------------------------|-X-----------------------|
A#|-7-----8-----9-----2-----|-2-----7-----9-----5-----|-5-----------------------|-X-----------------------|
 F|-7-----8-----9-----2-----|-2-----7-----9-----5-----|-5-----------------------|-X-----------------------|
 C|-5-----6-----7-----0-----|-0-----5-----7-----3-----|-3-----5-----5-----3-----|-X-----5-----5-----3-----|

 C|---------------------------------|---------------------------------|---------|---------|
 G|---------------------------------|---------------------------------|---------|---------|
D#|---------------------------------|---------------------------------|---------|---------|
A#|-4----4----------------3----3----|-3-------------------------------|---------|---------|
 F|-2----2-----2----2-----1----1----|-1----2----2-----7----6----5-----|-5-------|-5-------|
 C|------------0----0---------------|------0----0-----5----4----3-----|-3-------|-3-------|

 C|-------------------------|-------------------------|-------------------------|-X-----------------------|
 G|-------------------------|-------------------------|-------------------------|-X-----------------------|
D#|-------------------------|-------------------------|-------------------------|-X-----------------------|
A#|-7-----8-----9-----2-----|-2-----7-----9-----5-----|-5-----------------------|-X-----------------------|
 F|-7-----8-----9-----2-----|-2-----7-----9-----5-----|-5-----------------------|-X-----------------------|
 C|-5-----6-----7-----0-----|-0-----5-----7-----3-----|-3-----5-----5-----3-----|-X-----5-----5-----3-----|

 C|--------------------|--------------------|--------------------|---------------|--------------------|
 G|--------------------|--------------------|--------------------|---------------|--------------------|
D#|-------%------------|-%------%-----------|-------%------------|-------%-------|-------%------------|
A#|-2-----%-----2------|-%------%-----2-----|-2-----%------2-----|-2-----%-------|-2-----%-----2------|
 F|-2-----------2------|--------------2-----|-2------------2-----|-2-------------|-2-----------2------|
 C|-0-----------0------|--------------0-----|-0------------0-----|-0-------------|-0-----------0------|

 C|--------------------|--------------------|---------------|--------------------|---------|
 G|--------------------|--------------------|---------------|--------------------|---------|
D#|-%------%-----------|-------%------------|-------%-------|-------%------------|---------|
A#|-%------%-----2-----|-2-----%------2-----|-2-----%-------|-2-----%-----2------|-2-------|
 F|--------------2-----|-2------------2-----|-2-------------|-2-----------2------|-2-------|
 C|--------------0-----|-0------------0-----|-0-------------|-0-----------0------|-0-------|

 C|---------|-----------------------------------------|-------------------------------------|
 G|---------|-----------------------------------------|-------------------------------------|
D#|---------|-----------------------------------------|-------------------------------------|
A#|-2-------|-----------------------------------------|-------------------------------------|
 F|-2-------|-----------------------------------------|-------------------------------------|
 C|-0-------|-5----7----0----0----0----0----0----0----|-3----3----5----5----7----5----3-----|

 C|-----------------------------------------|-------------------------------------|
 G|-----------------------------------------|-------------------------------------|
D#|-----------------------------------------|-------------------------------------|
A#|-----------------------------------------|-------------------------------------|
 F|-----------------------------------------|-----------0----0----2----0----------|
 C|-5----7----0----0----0----0----0----0----|-3----3------------------------3-----|

 C|-----------------------------------------|-------------------------------------|
 G|-----------------------------------------|-------------------------------------|
D#|-----------------------------------------|-------------------------------------|
A#|-----------------------------------------|-------------------------------------|
 F|-----------------------------------------|-----------0----0----2----0----------|
 C|-5----7----0----0----0----0----0----0----|-3----3------------------------3-----|

 C|-----------------------------------------|------------------------|-------------------------------------|
 G|-----------------------------------------|------------------------|-------------------------------------|
D#|-----------------------------------------|------%-----------------|-------------------------------------|
A#|-----------------------------------------|------%-----------------|-------------------------------------|
 F|-0----2----------------------------------|------------------------|-------------------------------------|
 C|-----------0----0----0----0----0----0----|-3---------3------3-----|-5-----0----0----0----0----0----0----|

 C|------------------------|-------------------------------------|------------------------|
 G|------------------------|-------------------------------------|------------------------|
D#|------%-----------------|-------------------------------------|------%-----------------|
A#|------%-----------------|-------------------------------------|------%-----------------|
 F|------------------------|-------------------------------------|------------------------|
 C|-3---------3------3-----|-5-----0----0----0----0----0----0----|-3---------3------3-----|

 C|-------------------------------------|------------------------|-------------------------------------|
 G|-------------------------------------|------------------------|-------------------------------------|
D#|-------------------------------------|------%-----------------|-------------------------------------|
A#|-------------------------------------|------%-----------------|-------------------------------------|
 F|-------------------------------------|------------------------|-------------------------------------|
 C|-5-----0----0----0----0----0----0----|-3---------3------3-----|-5-----0----0----0----0----0----0----|

 C|-----------------------------------------|---------------------------------|-----------------------------------------|
 G|-----------------------------------------|---------------------------------|-----------------------------------------|
D#|-----------------------------------------|---------------------------------|-----------------------------------------|
A#|-----------------------------------------|---------------------------------|-----------------------------------------|
 F|-----------------------------------------|---------------------------------|-----------------------------------------|
 C|-5----7----7----0----5----7----7----0----|-3-----3-----0----0----0----0----|-5----7----7----0----5----7----7----0----|

 C|---------------------------------|-----------------------------------------|---------------------------------|
 G|---------------------------------|-----------------------------------------|---------------------------------|
D#|---------------------------------|-----------------------------------------|---------------------------------|
A#|---------------------------------|-----------------------------------------|---------------------------------|
 F|---------------------------------|-----------------------------------------|---------------------------------|
 C|-3-----3-----0----0----0----0----|-5----7----7----0----5----7----7----0----|-3-----3-----0----0----0----0----|

 C|-----------------------------------------|---------------------------------|-----------------------------------------|
 G|-----------------------------------------|---------------------------------|-----------------------------------------|
D#|-----------------------------------------|---------------------------------|-----------------------------------------|
A#|-----------------------------------------|---------------------------------|-----------------------------------------|
 F|-----------------------------------------|---------------------------------|-----------------------------------------|
 C|-5----7----7----0----5----7----7----0----|-3-----3-----0----0----0----0----|-5----7----7----0----5----7----7----0----|

 C|-----------------------------------------|-----------------------------------------|
 G|-----------------------------------------|-----------------------------------------|
D#|-----------------------------------------|-----------------------------------------|
A#|-----------------------------------------|-----------------------------------------|
 F|-----------------------------------------|-----------------------------------------|
 C|-3----4----5----0----0----0----0----0----|-5----7----7----0----5----7----7----0----|

 C|-----------------------------------------|-----------------------------------------|
 G|-----------------------------------------|-----------------------------------------|
D#|-----------------------------------------|-----------------------------------------|
A#|-----------------------------------------|-----------------------------------------|
 F|-----------------------------------------|-----------------------------------------|
 C|-3----4----5----0----0----0----0----0----|-5----7----7----0----5----7----7----0----|

 C|-----------------------------------------|-----------------------------------------|
 G|-----------------------------------------|-----------------------------------------|
D#|-----------------------------------------|-----------------------------------------|
A#|-----------------------------------------|-----------------------------------------|
 F|-----------------------------------------|-----------------------------------------|
 C|-3----4----5----0----0----0----0----0----|-5----7----7----0----5----7----7----0----|

 C|-----------------------------------------|-------------|-------------------------------------|
 G|-----------------------------------------|-------------|-------------------------------------|
D#|-----------------------------------------|-------------|-------------------------------------|
A#|-----------------------------------------|-2-----2-----|-------------------------------------|
 F|-----------------------------------------|-2-----2-----|-------------------------------------|
 C|-3----4----5----0----0----0----0----0----|-0-----0-----|-3----3----5----5----7----5----3-----|

 C|-------------------------|-------------------------------------|-------------------------|
 G|-------------------------|-------------------------------------|-------------------------|
D#|-------------------------|-------------------------------------|-------------------------|
A#|-------2-----2-----2-----|-------------------------------------|-------2-----2-----2-----|
 F|-------2-----2-----2-----|-------------------------------------|-------2-----2-----2-----|
 C|-5-----0-----0-----0-----|-3----3----5----5----7----5----3-----|-5-----0-----0-----0-----|

 C|-------------------------------------------------------------|-------------------------------------------------------------|
 G|-------------------------------------------------------------|-------------------------------------------------------------|
D#|-------------------------------------------------------------|-------------------------------------------------------------|
A#|-------------------------------------------------------------|-------------------------------------------------------------|
 F|-------------------------------------------------------------|-------------------------------------------------------------|
 C|-3----3----3----3----3----3----3----3----3----3----3----3----|-3----3----3----3----3----3----3----3----3----3----3----3----|

 C|-------------------------------------|-------------------------|-------------------------------------------------------------|
 G|-------------------------------------|-------------------------|-------------------------------------------------------------|
D#|-------------------------------------|-------------------------|-------------------------------------------------------------|
A#|-------------------------------------|-------2-----2-----2-----|-------------------------------------------------------------|
 F|-------------------------------------|-------2-----2-----2-----|-------------------------------------------------------------|
 C|-3----3----5----5----7----5----3-----|-5-----0-----0-----0-----|-3----3----3----3----3----3----3----3----3----3----3----3----|

 C|-------------------------------------------------------------|-----------------------------------------|
 G|-------------------------------------------------------------|-----------------------------------------|
D#|-------------------------------------------------------------|-----------------------------------------|
A#|-------------------------------------------------------------|-----------------------------------------|
 F|-------------------------------------------------------------|-----------------------------------------|
 C|-3----3----3----3----3----3----3----3----3----3----3----3----|-5----6----7----0----5----6----7----0----|

 C|-----------------------------------------|-----------------------------------------|
 G|-----------------------------------------|-----------------------------------------|
D#|-----------------------------------------|-----------------------------------------|
A#|-----------------------------------------|-----------------------------------------|
 F|-----------------------------------------|-----------------------------------------|
 C|-3----5----5----0----0----0----0----0----|-5----6----7----0----5----6----7----0----|

 C|-----------------------------------------|-----------------------------------------|
 G|-----------------------------------------|-----------------------------------------|
D#|-----------------------------------------|-----------------------------------------|
A#|-----------------------------------------|-----------------------------------------|
 F|-----------------------------------------|-----------------------------------------|
 C|-3----5----5----0----0----0----0----0----|-5----6----7----0----5----6----7----0----|

 C|-----------------------------------------|-------------------------|-------------------------|
 G|-----------------------------------------|-------------------------|-------------------------|
D#|-----------------------------------------|-------------------------|-------------------------|
A#|-----------------------------------------|-7-----8-----9-----2-----|-2-----7-----9-----5-----|
 F|-----------------------------------------|-7-----8-----9-----2-----|-2-----7-----9-----5-----|
 C|-3----5----5----1----1----1----1----1----|-5-----6-----7-----0-----|-0-----5-----7-----3-----|

 C|-------------------------|-X-----------------------|---------------------------------|
 G|-------------------------|-X-----------------------|---------------------------------|
D#|-------------------------|-X-----------------------|---------------------------------|
A#|-5-----------------------|-X-----------------------|-4----4----------------3----3----|
 F|-5-----------------------|-X-----------------------|-2----2-----2----2-----1----1----|
 C|-3-----5-----5-----3-----|-X-----5-----5-----3-----|------------0----0---------------|

 C|---------------------------------|---------|---------|-------------------------|
 G|---------------------------------|---------|---------|-------------------------|
D#|---------------------------------|---------|---------|-------------------------|
A#|-3-------------------------------|---------|---------|-7-----8-----9-----2-----|
 F|-1----2----2-----7----6----5-----|-5-------|-5-------|-7-----8-----9-----2-----|
 C|------0----0-----5----4----3-----|-3-------|-3-------|-5-----6-----7-----0-----|

 C|-------------------------|-------------------------|-X-----------------------|--------------------|
 G|-------------------------|-------------------------|-X-----------------------|--------------------|
D#|-------------------------|-------------------------|-X-----------------------|-------%------------|
A#|-2-----7-----9-----5-----|-5-----------------------|-X-----------------------|-2-----%-----2------|
 F|-2-----7-----9-----5-----|-5-----------------------|-X-----------------------|-2-----------2------|
 C|-0-----5-----7-----3-----|-3-----5-----5-----3-----|-X-----5-----5-----3-----|-0-----------0------|

 C|--------------------|--------------------|---------------|--------------------|--------------------|
 G|--------------------|--------------------|---------------|--------------------|--------------------|
D#|-%------%-----------|-------%------------|-------%-------|-------%------------|-%------%-----------|
A#|-%------%-----2-----|-2-----%------2-----|-2-----%-------|-2-----%-----2------|-%------%-----2-----|
 F|--------------2-----|-2------------2-----|-2-------------|-2-----------2------|--------------2-----|
 C|--------------0-----|-0------------0-----|-0-------------|-0-----------0------|--------------0-----|

 C|--------------------|---------------|---------------------------------|------------------------|
 G|--------------------|---------------|---------------------------------|------------------------|
D#|-------%------------|-------%-------|---------------------------------|-----------------14-----|
A#|-2-----%------2-----|-2-----%-------|-4----4----------------3----3----|-3----------------------|
 F|-2------------2-----|-2-------------|-2----2-----2----2-----1----1----|-1----2----2------------|
 C|-0------------0-----|-0-------------|------------0----0---------------|------0----0------------|

 C|---------------------------------|------------------------|---------------------------------|
 G|---------------------------------|------------------------|---------------------------------|
D#|---------------------------------|-----------------%------|---------------------------------|
A#|-4----4----------------3----3----|-3---------------%------|-4----4----------------3----3----|
 F|-2----2-----2----2-----1----1----|-1----2----2------------|-2----2-----2----2-----1----1----|
 C|------------0----0---------------|------0----0------------|------------0----0---------------|

 C|------------------------|---------------------------------|-------------------|---------------|
 G|------------------------|---------------------------------|-------------------|---------------|
D#|-----------------%------|---------------------------------|-------------------|---------------|
A#|-3---------------%------|-4----4----------------3----3----|-3---------4-------|-3-------------|
 F|-1----2----2------------|-2----2-----2----2-----1----1----|-1----2----2-------|-1-------5-----|
 C|------0----0------------|------------0----0---------------|------0------------|---------3-----|

 C|---------|---------------|---------------|---------------|---------|---------------|
 G|---------|---------------|---------------|---------------|---------|---------------|
D#|---------|---------------|---------------|---------------|---------|---------------|
A#|---------|---------4-----|-4------3------|-3-------------|---------|---------4-----|
 F|-5-------|-5-------2-----|-2------1------|-1-----5-------|-5-------|-5-------2-----|
 C|-3-------|-3-------------|---------------|-------3-------|-3-------|-3-------------|

 C|---------------|---------------|---------|---------------|---------------|---------------|
 G|---------------|---------------|---------|---------------|---------------|---------------|
D#|---------------|---------------|---------|---------------|---------------|---------------|
A#|-4------3------|-3-------------|---------|---------4-----|-4------3------|-3-------------|
 F|-2------1------|-1-----5-------|-5-------|-5-------2-----|-2------1------|-1-----5-------|
 C|---------------|-------3-------|-3-------|-3-------------|---------------|-------3-------|

 C|---------|---------------|---------------|---------------|---------|---------------|
 G|---------|---------------|---------------|---------------|---------|---------------|
D#|---------|---------------|---------------|---------------|---------|---------------|
A#|---------|---------4-----|-4------3------|-3-------------|---------|---------4-----|
 F|-5-------|-5-------2-----|-2------1------|-1-----5-------|-5-------|-5-------2-----|
 C|-3-------|-3-------------|---------------|-------3-------|-3-------|-3-------------|

 C|---------------|---------------|---------|---------------|---------------|---------------|
 G|---------------|---------------|---------|---------------|---------------|---------------|
D#|---------------|---------------|---------|---------------|---------------|---------------|
A#|-4------3------|-3-------------|---------|---------4-----|-4------3------|-3-------------|
 F|-2------1------|-1-----5-------|-5-------|-5-------2-----|-2------1------|-1-----5-------|
 C|---------------|-------3-------|-3-------|-3-------------|---------------|-------3-------|

 C|---------|---------------|---------------|---------------|---------|---------------|
 G|---------|---------------|---------------|---------------|---------|---------------|
D#|---------|---------------|---------------|---------------|---------|---------------|
A#|---------|---------4-----|-4------3------|-3-------------|---------|---------4-----|
 F|-5-------|-5-------2-----|-2------1------|-1-----5-------|-5-------|-5-------2-----|
 C|-3-------|-3-------------|---------------|-------3-------|-3-------|-3-------------|

 C|---------------|---------------|---------|---------------|---------------|---------------|
 G|---------------|---------------|---------|---------------|---------------|---------------|
D#|---------------|---------------|---------|---------------|---------------|---------------|
A#|-4------3------|-3-------------|---------|---------4-----|-4------3------|-3-------------|
 F|-2------1------|-1-----5-------|-5-------|-5-------2-----|-2------1------|-1-----5-------|
 C|---------------|-------3-------|-3-------|-3-------------|---------------|-------3-------|

 C|---------|---------------|---------------|---------------|---------|---------------|
 G|---------|---------------|---------------|---------------|---------|---------------|
D#|---------|---------------|---------------|---------------|---------|---------------|
A#|---------|---------4-----|-4------3------|-3-------------|---------|---------4-----|
 F|-5-------|-5-------2-----|-2------1------|-1-----5-------|-5-------|-5-------2-----|
 C|-3-------|-3-------------|---------------|-------3-------|-3-------|-3-------------|

 C|---------------|---------------|---------|---------------|---------------|---------------|
 G|---------------|---------------|---------|---------------|---------------|---------------|
D#|---------------|--------2------|-2-------|---------------|---------------|--------2------|
A#|-4------3------|-3------1------|-1-------|---------4-----|-4------3------|-3------1------|
 F|-2------1------|-1------1------|-1-------|-1-------2-----|-2------1------|-1------1------|
 C|---------------|--------0------|---------|-0-------------|---------------|--------0------|

 C|---------|---------------|---------------|--------5------|---------|---------------|
 G|---------|---------------|---------------|--------4------|---------|-4-------------|
D#|-2-------|---------------|---------------|--------2------|-2-------|-2-------------|
A#|-1-------|---------4-----|-4------3------|-3------1------|-1-------|-1-------4-----|
 F|-1-------|-1-------2-----|-2------1------|-1------1------|-1-------|-1-------2-----|
 C|---------|-0-------------|---------------|--------0------|---------|-0-------------|

 C|---------------|---------------|---------|---------|---------|---------|---------|
 G|---------------|---------------|---------|---------|---------|---------|---------|
D#|---------------|--------2------|-2-------|-2-------|-2-------|-2-------|-%-------|
A#|-4------3------|-3------1------|-1-------|-1-------|-1-------|-1-------|-%-------|
 F|-2------1------|-1------1------|-1-------|-1-------|-1-------|---------|---------|
 C|---------------|--------0------|-0-------|-0-------|-0-------|---------|---------|

 C|---------|
 G|---------|
D#|-%-------|
A#|-%-------|
 F|---------|
 C|---------|
Metallica - All Within My Hands (2)
Metallica - All Within My Hands (2).gp4