Metallica - ...And Justice For All (2)

Metallica - ...And Justice For All (2)

Metallica



Title: And Justice For All Mix
Album: 
Artist: Metalica
Author: Jaymz

Track 1: Base Guitar
E|--------------------------------------------------------|--------------------------------------------------------|
B|--------------------------------------------------------|--------------------------------------------------------|
G|--------------------------------------------------------|--------------------------------------------------------|
D|---------------------------------------------------9----|---------------------------------------------------9----|
A|---------------------------------------------------7----|---------------------------------------------------7----|
E|-0---0---0---0---0---0---0---0---0----0----0---0--------|-0---0---0---0---0---0---0---0---0----0----0---0--------|

E|--------------------------------------------------------|--------------------------------------------------------|
B|--------------------------------------------------------|--------------------------------------------------------|
G|--------------------------------------------------------|--------------------------------------------------------|
D|---------------------------------------------------9----|---------------------------------------------------9----|
A|---------------------------------------------------7----|---------------------------------------------------7----|
E|-0---0---0---0---0---0---0---0---0----0----0---0--------|-0---0---0---0---0---0---0---0---0----0----0---0--------|

E|--------------------------------------------------------|--------------------------------------------------------|
B|--------------------------------------------------------|--------------------------------------------------------|
G|--------------------------------------------------------|--------------------------------------------------------|
D|--------------------------------------------------------|---------------------------------------------------9----|
A|---------------------------------------------------4----|---------------------------------------------------7----|
E|-0---0---0---0---0---0---0---0---3----3----3---3---2----|-2---2---2---2---2---2---2---2---0----0----0---0--------|

E|--------------------------------------------------------|--------------------------------------------------------|
B|--------------------------------------------------------|--------------------------------------------------------|
G|--------------------------------------------------------|--------------------------------------------------------|
D|--------------------------------------------------------|---------------------------------------------------9----|
A|---------------------------------------------------4----|---------------------------------------------------7----|
E|-0---0---0---0---0---0---0---0---3----3----3---3---2----|-2---2---2---2---2---2---2---2---0----0----0---0--------|

E|--------------------------------------------------------|--------------------------------------------------------|
B|--------------------------------------------------------|--------------------------------------------------------|
G|--------------------------------------------------------|--------------------------------------------------------|
D|--------------------------------------------------------|---------------------------------------------------9----|
A|---------------------------------------------------4----|---------------------------------------------------7----|
E|-0---0---0---0---0---0---0---0---3----3----3---3---2----|-2---2---2---2---2---2---2---2---0----0----0---0--------|

E|--------------------------------------------------|--------------------------------------------------|
B|--------------------------------------------------|--------------------------------------------------|
G|--------------------------------------------------|--------------------------------------------------|
D|--------------------------------------------------|--------------------------------------------------|
A|-----7---------------------------7-------7--------|-----7---------------------------7-------7--------|
E|-0---0---0----0----0----0----0---0---0---0---0----|-0---0---0----0----0----0----0---0---0---0---0----|

E|--------------------------------------------------|--------------------------------------------------|
B|--------------------------------------------------|--------------------------------------------------|
G|--------------------------------------------------|--------------------------------------------------|
D|--------------------------------------------------|--------------------------------------------------|
A|-----7---------------------------7-------7--------|-----7---------------------------7-------7--------|
E|-0---0---0----0----0----0----0---0---0---0---0----|-0---0---0----0----0----0----0---0---0---0---0----|

E|-------------------------------------------|-------------------------------------------|
B|-------------------------------------------|-------------------------------------------|
G|-------------------------------------------|-------------------------------------------|
D|------------------------9---9---9----8-----|------------------------9---9---9----8-----|
A|-----7------------------7---7---7----7-----|-----7------------------7---7---7----7-----|
E|-0---0---0----0----0-----------------------|-0---0---0----0----0-----------------------|

E|-------------------------------------------|--------------------------------------------------------|
B|-------------------------------------------|--------------------------------------------------------|
G|-------------------------------------------|--------------------------------------------------------|
D|------------------------9---9---9----8-----|------------------------8---9---8-----------------------|
A|-----7------------------7---7---7----7-----|-----7----------------------------------7---8---7-------|
E|-0---0---0----0----0-----------------------|-0---0---0----0----0----------------0---------------0---|

E|-------------------------------------------|-------------------------------------------|
B|-------------------------------------------|-------------------------------------------|
G|-------------------------------------------|-------------------------------------------|
D|------------------------9---9---9----8-----|------------------------9---9---9----8-----|
A|-----7------------------7---7---7----7-----|-----7------------------7---7---7----7-----|
E|-0---0---0----0----0-----------------------|-0---0---0----0----0-----------------------|

E|-------------------------------------------|--------------------------------------------------------|
B|-------------------------------------------|--------------------------------------------------------|
G|-------------------------------------------|--------------------------------------------------------|
D|------------------------9---9---9----8-----|------------------------8---9---8-----------------------|
A|-----7------------------7---7---7----7-----|-----7----------------------------------7---8---7-------|
E|-0---0---0----0----0-----------------------|-0---0---0----0----0----------------0---------------0---|

E|---------------------------------|---------|-------------------------|-----------------------------------------|
B|---------------------------------|---------|-------------------------|-----------------------------------------|
G|---------------------------------|---------|-%-------%---------------|-----------------------------------------|
D|---------------------------------|-2-------|-%-------%-------2-------|----------------2------------------------|
A|---------------------------------|-2-------|-----------------2-------|------0----1-----------------------------|
E|-6---7---6---0---2---3---2---0---|-0-------|-----------------0-------|-0-------------------0----0----0----0----|

E|-----------------------------------------|-----------------------------------------|
B|-----------------------------------------|-----------------------------------------|
G|-----------------------------------------|-----------------------------------------|
D|-----------3----2------------------------|----------------2------------------------|
A|-0----1----------------------------------|------0----1-----------------------------|
E|---------------------0----0----0----0----|-0-------------------0----0----0----0----|

E|---------------|-----------------------------------------|-----------------------------------------|
B|---------------|-----------------------------------------|-----------------------------------------|
G|-------8-------|-----------------------------------------|-----------3-----------------------------|
D|-------8-------|----------------2------------------------|-2--------------2------------------------|
A|-------6-------|------0----1-----------------------------|------1----------------------------------|
E|-6-------------|-0-------------------0----0----0----0----|---------------------0----0----0----0----|

E|-----------------------------------------|---------------|-----------------------------------------|
B|-----------------------------------------|---------------|-----------------------------------------|
G|-----------------------------------------|-------8-------|-----------------------------------------|
D|----------------2------------------------|-------8-------|----------------2------------------------|
A|------0----1-----------------------------|-------6-------|------0----1-----------------------------|
E|-0-------------------0----0----0----0----|-6-------------|-0-------------------0----0----0----0----|

E|-----------------------------------------|-----------------------------------------|
B|-----------------------------------------|-----------------------------------------|
G|-----------------------------------------|-----------------------------------------|
D|-----------3----2------------------------|----------------2------------------------|
A|-0----1----------------------------------|------0----1-----------------------------|
E|---------------------0----0----0----0----|-0-------------------0----0----0----0----|

E|---------------|-----------------------------------------|-----------------------------------------|
B|---------------|-----------------------------------------|-----------------------------------------|
G|-------8-------|-----------------------------------------|-----------3-----------------------------|
D|-------8-------|----------------2------------------------|-2--------------2------------------------|
A|-------6-------|------0----1-----------------------------|------1----------------------------------|
E|-6-------------|-0-------------------0----0----0----0----|---------------------0----0----0----0----|

E|-----------------------------------------|--------------------------------------|
B|-----------------------------------------|--------------------------------------|
G|-----------------------------------------|-----------8------8----8----8----8----|
D|----------------2------------------------|-----------8------8----8----8----8----|
A|------0----1-----------------------------|-8----8----6------6----6----6----6----|
E|-0-------------------0----0----0----0----|-6----6-------------------------------|

E|-----------------------------|-----------------------------|-----------------------------|
B|-----------------------------|-----------------------------|-----------------------------|
G|-----------------------------|-----------------------------|-----------------------------|
D|-----------------------------|-----------------------------|-----------------------------|
A|-2-----2----2----2----2------|-2-----2----2----2----2------|-2-----2----2----2----2------|
E|-0-----0----0----0----0------|-0-----0----0----0----0------|-0-----0----0----0----0------|

E|--------------------|-----------------------------|-----------------------------|
B|--------------------|-----------------------------|-----------------------------|
G|--------------------|-----------------------------|-----------------------------|
D|-8------8-----9-----|-9---------------------------|-----------------------------|
A|-6------6-----7-----|-7-----2----2----2----2------|-2-----2----2----2----2------|
E|--------------------|-------0----0----0----0------|-0-----0----0----0----0------|

E|-----------------------------|--------------------|-----------------------------|
B|-----------------------------|--------------------|-----------------------------|
G|-----------------------------|--------------------|-----------------------------|
D|-----------------------------|-8------8-----9-----|-9-----9----9----9----9------|
A|-2-----2----2----2----2------|-6------6-----7-----|-7-----7----7----7----7------|
E|-0-----0----0----0----0------|--------------------|-----------------------------|

E|-----------------------------|-----------------------------|-------------------|--------|
B|-----------------------------|-----------------------------|-------------------|--------|
G|-----------------------------|-----------------------------|------------%------|--------|
D|-9-----9----9----9----9------|-9-----9----9----9----9------|------------%------|--------|
A|-7-----7----7----7----7------|-7-----7----7----7----7------|-4-----3-----------|-3------|
E|-----------------------------|-----------------------------|-2-----1-----------|-1------|

E|-------------------------------------------------------------------------|-------------------------------------------------------------------------|
B|-------------------------------------------------------------------------|-------------------------------------------------------------------------|
G|-------------------------------%-----------------------------------------|-------------------------------%-----------------------------------------|
D|---------------------3---------%---------3-------------------------------|---------------------3---------%---------3-------------------------------|
A|-3-------------------1-------------------1-----------4--------------3----|-2-------------------1-------------------1-----------4--------------3----|
E|-1----0----0----0---------0---------0-----------0----2----0----0----1----|-0----0----0----0---------0---------0-----------0----2----0----0----1----|

E|-------------------------------------------------------------------------|-------------------------------------------------------------------------|
B|-------------------------------------------------------------------------|-------------------------------------------------------------------------|
G|-------------------------------%-----------------------------------------|-------------------------------%---------------%---------------%---------|
D|---------------------3---------%---------3-------------------------------|---------------------3---------%---------3-----%-----3----3----%----3----|
A|-2-------------------1-------------------1-----------4--------------3----|-2-------------------1-------------------1-----------1----1---------1----|
E|-0----0----0----0---------0---------0-----------0----2----0----0----1----|-0----0----0----0---------0---------0------------------------------------|

E|-------------------------------------------------------------------------|-------------------------------------------------------------------------|
B|-------------------------------------------------------------------------|-------------------------------------------------------------------------|
G|-------------------------------%-----------------------------------------|-------------------------------%-----------------------------------------|
D|---------------------3---------%---------3-------------------------------|---------------------3---------%---------3-------------------------------|
A|---------------------1-------------------1-----------4--------------3----|---------------------1-------------------1-----------4--------------3----|
E|-0----0----0----0---------0---------0-----------0----2----0----0----1----|-0----0----0----0---------0---------0-----------0----2----0----0----1----|

E|-------------------------------------------------------------------------|-------------------------------------------------------------------------|
B|-------------------------------------------------------------------------|-------------------------------------------------------------------------|
G|-------------------------------%-----------------------------------------|-------------------------------%---------------%---------------%---------|
D|---------------------3---------%---------3-------------------------------|---------------------3---------%---------3-----%-----3----3----%----3----|
A|---------------------1-------------------1-----------4--------------3----|-2-------------------1-------------------1-----------1----1---------1----|
E|-0----0----0----0---------0---------0-----------0----2----0----0----1----|-0----0----0----0---------0---------0------------------------------------|

E|-------------------------------------------------------------------------|---------------------------------------------------------------------------------------------|
B|-------------------------------------------------------------------------|---------------------------------------------------------------------------------------------|
G|-------------------------------%-----------------------------------------|-------------------------------%-----------------------------------%---------------%---------|
D|---------------------3---------%---------3-------------------------------|---------------------3---------%---------3-----X----X----3----3----%-----3----3----%----3----|
A|---------------------1-------------------1-----------4--------------3----|-2-------------------1-------------------1-----X----X----1----1----------1----1---------1----|
E|-0----0----0----0---------0---------0-----------0----2----0----0----1----|-0----0----0----0---------0---------0--------------------------------------------------------|

E|-------------------------------------------------------------------------|-----------------------------------------------------------------|
B|-------------------------------------------------------------------------|-----------------------------------------------------------------|
G|-------------------------------%-----------------------------------------|-----------------------------------------------------------------|
D|---------------------3---------%---------3-------------------------------|-2---------------2---------------2---------------2---------------|
A|---------------------1-------------------1-----------4--------------3----|-2---------------2---------------1---------------1---------------|
E|-0----0----0----0---------0---------0-----------0----2----0----0----1----|-0-----0----0----------0----0----------0----0----------0----0----|

E|-------------------------------------------------------------|-------------------------------------------------------------------------|
B|-------------------------------------------------------------|-------------------------------------------------------------------------|
G|-------------------------------------------------------------|-------------------------------%-----------------------------------------|
D|-2---------------2-------------------------------------------|---------------------3---------%---------3-------------------------------|
A|-0---------------0---------------7---------------------------|---------------------1-------------------1-----------4--------------3----|
E|-------0----0----------0----0----4-----0----0----2-----2-----|-0----0----0----0---------0---------0-----------0----2----0----0----1----|

E|-------------------------------------------------------------------------|-----------------------------------------------------------------|
B|-------------------------------------------------------------------------|-----------------------------------------------------------------|
G|-------------------------------%-----------------------------------------|-----------------------------------------------------------------|
D|---------------------3---------%---------3-------------------------------|-2---------------2---------------2---------------2---------------|
A|---------------------1-------------------1-----------4--------------3----|-2---------------2---------------1---------------1---------------|
E|-0----0----0----0---------0---------0-----------0----2----0----0----1----|-0-----0----0----------0----0----------0----0----------0----0----|

E|-------------------------------------------------------------|-------------------------------------------------------------------------|
B|-------------------------------------------------------------|-------------------------------------------------------------------------|
G|-------------------------------------------------------------|-------------------------------%-----------------------------------------|
D|-2---------------2-------------------------------------------|---------------------3---------%---------3-------------------------------|
A|-0---------------0---------------7---------------------------|---------------------1-------------------1-----------4--------------3----|
E|-------0----0----------0----0----4-----0----0----2-----2-----|-0----0----0----0---------0---------0-----------0----2----0----0----1----|

E|-----------------|-----------------|-----------------|-----------------|-----------------|
B|-----------------|-----------------|-----------------|-----------------|-----------------|
G|-----------------|-----------------|-----------------|-----------------|-----------------|
D|-2-------2-------|-2-------2-------|-2-------2-------|-2-------2-------|-2-------2-------|
A|-2-------2-------|-2-------2-------|-2-------2-------|-2-------2-------|-2-------2-------|
E|-0-------0-------|-0-------0-------|-0-------0-------|-0-------0-------|-0-------0-------|

E|---------------------------------|---------------------------------|-----------------|
B|---------------------------------|---------------------------------|-----------------|
G|---------------------------------|---------------------------------|-----------------|
D|-----------7---------------7-----|---------------------------------|-----------7-----|
A|-8----8----7-----8----8----7-----|------5---7-----7----5-----------|-8----8----7-----|
E|-6----6----5-----6----6----5-----|-0-------------------------7-----|-6----6----5-----|

E|---------------------------------|-------------------------------------|---------------------------------|
B|---------------------------------|-------------------------------------|---------------------------------|
G|---------------------------------|-------------------------------------|-----------%---------------------|
D|---------------------------------|-----------7-------------------------|------2----%----X----2-----2-----|
A|------5---7-----7----5-----------|-8----8----7-----5----5----4---------|------2---------X----2-----2-----|
E|-0-------------------------7-----|-6----6----5-----3----3----2----0----|-0----0---------X----0-----0-----|

E|-----------------|-------------------------------------|---------------------------------|
B|-----------------|-------------------------------------|---------------------------------|
G|-----------------|-----------%--------------%----------|---------------------------------|
D|-----------3-----|------2----%----X----2----%----2-----|-----------7---------------7-----|
A|-----------3-----|------2---------X----2---------2-----|-8----8----7-----8----8----7-----|
E|-0----0----1-----|-0----0---------X----0---------0-----|-6----6----5-----6----6----5-----|

E|---------------------------------|-----------------|-------------------------------------|
B|---------------------------------|-----------------|-------------------------------------|
G|-----------%---------------------|-----------------|-----------%--------------%----------|
D|------2----%----X----2-----2-----|-----------3-----|------2----%----X----2----%----2-----|
A|------2---------X----2-----2-----|-----------3-----|------2---------X----2---------2-----|
E|-0----0---------X----0-----0-----|-0----0----1-----|-0----0---------X----0---------0-----|

E|---------------------------------|---------------------------------|-----------------------------------------|
B|---------------------------------|---------------------------------|-----------------------------------------|
G|---------------------------------|---------------------------------|-----------------------------------------|
D|-----------7---------------7-----|-8----8----7-----8----8----8-----|-----------------------------------------|
A|-8----8----7-----8----8----7-----|-8----8----7-----8----8----8-----|-7----7----7----7----7----5----5----5----|
E|-6----6----5-----6----6----5-----|-6----6----5-----6----6----6-----|-0----0----0----0----0----3----3----3----|

E|-------------------------------------|----------------------------------------|-------------------------------------|
B|-------------------------------------|----------------------------------------|-------------------------------------|
G|-------------------------------------|----------------------------------------|-------------------------------------|
D|-4-----------------------------------|-5----4----2----4--5----5-----4---5-----|-4-----------------------------------|
A|-4-----4----4----4----4----4----4----|-5----4----2----4--5----5-----4---5-----|-4-----4----4----4----4----4----4----|
E|-2-----2----2----2----2----2----2----|-3----2----0----2--3----3-----2---3-----|-2-----2----2----2----2----2----2----|

E|----------------------------------------|-------------------------------------|----------------------------------------|
B|----------------------------------------|-------------------------------------|----------------------------------------|
G|----------------------------------------|-------------------------------------|----------------------------------------|
D|-5----4----2----4--5----5-----4---5-----|-4-----------------------------------|-5----4----2----4--5----5-----5---7-----|
A|-5----4----2----4--5----5-----4---5-----|-4-----4----4----4----4----4----4----|-5----4----2----4--5----5-----5---7-----|
E|-3----2----0----2--3----3-----2---3-----|-2-----2----2----2----2----2----2----|-3----2----0----2--3----3-----3---5-----|

E|-------------------------------------|---------|-------------------------------------|
B|-------------------------------------|---------|-------------------------------------|
G|-------------------------------------|-%-------|-------------------------------------|
D|-4-----------------------------------|-%-------|-4-----------------------------------|
A|-4-----4----4----4----4----4----4----|---------|-4-----4----4----4----4----4----4----|
E|-2-----2----2----2----2----2----2----|---------|-2-----2----2----2----2----2----2----|

E|----------------------------------------|-------------------------------------|----------------------------------------|
B|----------------------------------------|-------------------------------------|----------------------------------------|
G|----------------------------------------|-------------------------------------|----------------------------------------|
D|-5----4----2----4--5----5-----4---5-----|-4-----------------------------------|-5----4----2----4--5----5-----4---5-----|
A|-5----4----2----4--5----5-----4---5-----|-4-----4----4----4----4----4----4----|-5----4----2----4--5----5-----4---5-----|
E|-3----2----0----2--3----3-----2---3-----|-2-----2----2----2----2----2----2----|-3----2----0----2--3----3-----2---3-----|

E|-------------------------------------|----------------------------------------|-------------------------------------|
B|-------------------------------------|----------------------------------------|-------------------------------------|
G|-------------------------------------|----------------------------------------|-------------------------------------|
D|-4-----------------------------------|-5----4----2----4--5----5-----5---7-----|-4-----------------------------------|
A|-4-----4----4----4----4----4----4----|-5----4----2----4--5----5-----5---7-----|-4-----4----4----4----4----4----4----|
E|-2-----2----2----2----2----2----2----|-3----2----0----2--3----3-----3---5-----|-2-----2----2----2----2----2----2----|

E|---------|---------|-------------------------------------|----------------------------------------|
B|---------|---------|-------------------------------------|----------------------------------------|
G|-%-------|-%-------|-------------------------------------|-5----4---------4--5----------4---5-----|
D|-%-------|-%-------|-2-----------------------------------|-5----4----0----4--5----5-----4---5-----|
A|---------|---------|-2-----2----2----2----2----2----2----|-3----2----0----2--3----3-----2---3-----|
E|---------|---------|-0-----0----0----0----0----0----0----|----------------------------------------|

E|---------|---------|------------------------|-------------------------------------|
B|---------|---------|------------------------|-------------------------------------|
G|-2-------|-4-------|-5------5---------------|-------------------------------------|
D|-2-------|-4-------|-5------5---------3-----|-2-----------------------------------|
A|-0-------|-2-------|-3------3----0----3-----|-2-----2----2----2----2----2----2----|
E|---------|---------|------------------1-----|-0-----0----0----0----0----0----0----|

E|----------------------------------------|---------|---------------|-------------------------------------|
B|----------------------------------------|---------|---------------|-------------------------------------|
G|-5----4---------4--5----------4---5-----|-2-------|-4-------------|-------------------------------------|
D|-5----4----0----4--5----5-----4---5-----|-2-------|-4-------3-----|-2-----------------------------------|
A|-3----2----0----2--3----3-----2---3-----|-0-------|-2-------3-----|-2-----2----2----2----2----2----2----|
E|----------------------------------------|---------|---------1-----|-0-----0----0----0----0----0----0----|

E|----------------------------------------|---------|---------|---------|---------|
B|----------------------------------------|---------|---------|-3-------|---------|
G|-5----4---------4--5----------4---5-----|-2-------|-4-------|-0-------|-5-------|
D|-5----4----0----4--5----5-----4---5-----|-2-------|-4-------|-0-------|-5-------|
A|-3----2----0----2--3----3-----2---3-----|-0-------|-2-------|---------|-3-------|
E|----------------------------------------|---------|---------|-3-------|---------|

E|---------------|---------------------------------|---------------------------------|
B|---------------|---------------------------------|---------------------------------|
G|---------------|---------------------------------|---------------------------------|
D|-3-------3-----|-8----8----7-----8----8----7-----|---------------------------------|
A|-3-------3-----|-8----8----7-----8----8----7-----|------5---7-----7----5-----------|
E|-1-------1-----|-6----6----5-----6----6----5-----|-0-------------------------7-----|

E|-----------------|---------------------------------|-------------------------------------|
B|-----------------|---------------------------------|-------------------------------------|
G|-----------------|---------------------------------|-------------------------------------|
D|-8----8----7-----|---------------------------------|-8----8----7-------------------------|
A|-8----8----7-----|------5---7-----7----5-----------|-8----8----7-----5----5----4---------|
E|-6----6----5-----|-0-------------------------7-----|-6----6----5-----3----3----2----0----|

E|---------------------------------|-----------------|-------------------------------------|
B|---------------------------------|-----------------|-------------------------------------|
G|-----------%----X----------------|-----------------|-----------%----X--------------------|
D|------2----%----X----2-----2-----|-----------3-----|------2----%----X----2---------2-----|
A|------2---------X----2-----2-----|-2----2----3-----|------2---------X----2---------2-----|
E|-0----0---------X----0-----0-----|-0----0----1-----|-0----0---------X----0----0----0-----|

E|---------------------------------|---------------------------------|-----------------|
B|---------------------------------|---------------------------------|-----------------|
G|---------------------------------|-----------%----X----------------|-----------------|
D|-8----8----7-----8----8----7-----|------2----%----X----2-----2-----|-----------3-----|
A|-8----8----7-----8----8----7-----|------2---------X----2-----2-----|-2----2----3-----|
E|-6----6----5-----6----6----5-----|-0----0---------X----0-----0-----|-0----0----1-----|

E|-------------------------------------|---------------------------------|-----------------------------------------|
B|-------------------------------------|---------------------------------|-----------------------------------------|
G|-----------%----X--------------------|---------------------------------|-----------------------------------------|
D|------2----%----X----2---------2-----|-8----8----7-----8----8----8-----|-----------------------------------------|
A|------2---------X----2---------2-----|-8----8----7-----8----8----8-----|-7----7----7----7----7----5----5----5----|
E|-0----0---------X----0----0----0-----|-6----6----5-----6----6----6-----|-0----0----0----0----0----3----3----3----|

E|-------------------------------------|----------------------------------------|-------------------------------------|
B|-------------------------------------|----------------------------------------|-------------------------------------|
G|-------------------------------------|----------------------------------------|-------------------------------------|
D|-4-----------------------------------|-5----4----2----4--5----5-----4---5-----|-4-----------------------------------|
A|-4-----4----4----4----4----4----4----|-5----4----2----4--5----5-----4---5-----|-4-----4----4----4----4----4----4----|
E|-2-----2----2----2----2----2----2----|-3----2----0----2--3----3-----2---3-----|-2-----2----2----2----2----2----2----|

E|----------------------------------------|-------------------------------------|----------------------------------------|
B|----------------------------------------|-------------------------------------|----------------------------------------|
G|----------------------------------------|-------------------------------------|----------------------------------------|
D|-5----4----2----4--5----5-----4---5-----|-4-----------------------------------|-5----4----2----4--5----5-----5---7-----|
A|-5----4----2----4--5----5-----4---5-----|-4-----4----4----4----4----4----4----|-5----4----2----4--5----5-----5---7-----|
E|-3----2----0----2--3----3-----2---3-----|-2-----2----2----2----2----2----2----|-3----2----0----2--3----3-----3---5-----|

E|-------------------------------------|---------|-------------------------------------|
B|-------------------------------------|---------|-------------------------------------|
G|-------------------------------------|-%-------|-------------------------------------|
D|-4-----------------------------------|-%-------|-4-----------------------------------|
A|-4-----4----4----4----4----4----4----|---------|-4-----4----4----4----4----4----4----|
E|-2-----2----2----2----2----2----2----|---------|-2-----2----2----2----2----2----2----|

E|----------------------------------------|-------------------------------------|----------------------------------------|
B|----------------------------------------|-------------------------------------|----------------------------------------|
G|----------------------------------------|-------------------------------------|----------------------------------------|
D|-5----4----2----4--5----5-----4---5-----|-4-----------------------------------|-5----4----2----4--5----5-----4---5-----|
A|-5----4----2----4--5----5-----4---5-----|-4-----4----4----4----4----4----4----|-5----4----2----4--5----5-----4---5-----|
E|-3----2----0----2--3----3-----2---3-----|-2-----2----2----2----2----2----2----|-3----2----0----2--3----3-----2---3-----|

E|-------------------------------------|----------------------------------------|-------------------------------------|
B|-------------------------------------|----------------------------------------|-------------------------------------|
G|-------------------------------------|----------------------------------------|-------------------------------------|
D|-4-----------------------------------|-5----4----2----4--5----5-----5---7-----|-4-----------------------------------|
A|-4-----4----4----4----4----4----4----|-5----4----2----4--5----5-----5---7-----|-4-----4----4----4----4----4----4----|
E|-2-----2----2----2----2----2----2----|-3----2----0----2--3----3-----3---5-----|-2-----2----2----2----2----2----2----|

E|---------|---------|-------------------------------------|----------------------------------------|
B|---------|---------|-------------------------------------|----------------------------------------|
G|-%-------|-%-------|-------------------------------------|-5----4---------4--5----5-----4---5-----|
D|-%-------|-%-------|-2-----------------------------------|-5----4----0----4--5----5-----4---5-----|
A|---------|---------|-2-----2----2----2----2----2----2----|-3----2----0----2--3----3-----2---3-----|
E|---------|---------|-0-----0----0----0----0----0----0----|----------------------------------------|

E|---------|---------|------------------------|-------------------------------------|
B|---------|---------|------------------------|-------------------------------------|
G|-2-------|-4-------|-5------5---------------|-------------------------------------|
D|-2-------|-4-------|-5------5---------3-----|-2-----------------------------------|
A|-0-------|-2-------|-3------3----0----3-----|-2-----2----2----2----2----2----2----|
E|---------|---------|------------------1-----|-0-----0----0----0----0----0----0----|

E|----------------------------------------|---------|---------------|-------------------------------------|
B|----------------------------------------|---------|---------------|-------------------------------------|
G|-5----4---------4--5----5-----4---5-----|-2-------|-4-------------|-------------------------------------|
D|-5----4----0----4--5----5-----4---5-----|-2-------|-4-------3-----|-2-----------------------------------|
A|-3----2----0----2--3----3-----2---3-----|-0-------|-2-------3-----|-2-----2----2----2----2----2----2----|
E|----------------------------------------|---------|---------1-----|-0-----0----0----0----0----0----0----|

E|----------------------------------------|---------|---------|---------|---------|
B|----------------------------------------|---------|---------|-3-------|---------|
G|-5----4---------4--5----5-----4---5-----|-2-------|-4-------|-0-------|-5-------|
D|-5----4----0----4--5----5-----4---5-----|-2-------|-4-------|-0-------|-5-------|
A|-3----2----0----2--3----3-----2---3-----|-0-------|-2-------|---------|-3-------|
E|----------------------------------------|---------|---------|-3-------|---------|

E|---------------|---------------------------------|---------------------------------|
B|---------------|---------------------------------|---------------------------------|
G|---------------|---------------------------------|---------------------------------|
D|-3-------3-----|-8----8----7-----8----8----7-----|---------------------------------|
A|-3-------3-----|-8----8----7-----8----8----7-----|------5---7-----7----5-----------|
E|-1-------1-----|-6----6----5-----6----6----5-----|-0-------------------------7-----|

E|-----------------|---------------------------------|-------------------------------|
B|-----------------|---------------------------------|-------------------------------|
G|-----------------|---------------------------------|-------%-----------------%-----|
D|-8----8----7-----|---------------------------------|-8-----%-----8-----7-----%-----|
A|-8----8----7-----|------5---7-----7----5-----------|-8-----------8-----7-----------|
E|-6----6----5-----|-0-------------------------7-----|-6-----------6-----5-----------|

E|-------------------------------|----------------------------|-----------------------------------------|
B|-------------------------------|----------------------------|-----------------------------------------|
G|-%-----------------------%-----|---------------------%------|-3----2--------------2-------------------|
D|-%-----8-----7-----6-----%-----|-8----7----6----5----%------|-3----2----5----3----2----5----3----2----|
A|-------8-----7-----6-----------|-8----7----6----5-----------|-----------5----3---------5----3----2----|
E|-------6-----5-----4-----------|-6----5----4----3-----------|-----------------------------------------|

E|-------------------------------------|-------------------------|-----------------------------------------|
B|-------------------------------------|-------------------------|-----------------------------------------|
G|-------------------------------%-----|-------------------------|-----------------------------------------|
D|-5----3----2---------3----2----%-----|-3-----2-----------------|-2---------------------------------------|
A|-5----3----2----5----3----2----------|-3-----2-----5-----3-----|-2----5----3----2----5----3----2----0----|
E|----------------5--------------------|-------------5-----3-----|------5----3----2----5----3----2----0----|

E|---------|-------------------------------------------------------------|-------------------------------------|
B|---------|-------------------------------------------------------------|-------------------------------------|
G|---------|----------------------------------------------0----5----7----|-------------------------------------|
D|-2-------|-------------------------------0----5----7-------------------|-4-----------------------------------|
A|-2-------|-0----2----3----0----5----7----------------------------------|-4-----4----4----4----4----4----4----|
E|-0-------|-------------------------------------------------------------|-2-----2----2----2----2----2----2----|

E|----------------------------------------|-------------------------------------|----------------------------------------|
B|----------------------------------------|-------------------------------------|----------------------------------------|
G|----------------------------------------|-------------------------------------|----------------------------------------|
D|-5----4----2----4--5----5-----4---5-----|-4-----------------------------------|-5----4----2----4--5----5-----4---5-----|
A|-5----4----2----4--5----5-----4---5-----|-4-----4----4----4----4----4----4----|-5----4----2----4--5----5-----4---5-----|
E|-3----2----0----2--3----3-----2---3-----|-2-----2----2----2----2----2----2----|-3----2----0----2--3----3-----2---3-----|

E|-------------------------------------|----------------------------------------|-------------------------------------|
B|-------------------------------------|----------------------------------------|-------------------------------------|
G|-------------------------------------|----------------------------------------|-------------------------------------|
D|-4-----------------------------------|-5----4----2----4--5----5-----5---7-----|-4-----------------------------------|
A|-4-----4----4----4----4----4----4----|-5----4----2----4--5----5-----5---7-----|-4-----4----4----4----4----4----4----|
E|-2-----2----2----2----2----2----2----|-3----2----0----2--3----3-----3---5-----|-2-----2----2----2----2----2----2----|

E|-------------------------------------------------------------|-------------------------------------|
B|-------------------------------------------------------------|-------------------------------------|
G|-0----5----7-------------------------------------------------|-------------------------------------|
D|----------------0----5----7----------------------------------|-4-----------------------------------|
A|-------------------------------0----5----7----0----2----3----|-4-----4----4----4----4----4----4----|
E|-------------------------------------------------------------|-2-----2----2----2----2----2----2----|

E|----------------------------------------|-------------------------------------|----------------------------------------|
B|----------------------------------------|-------------------------------------|----------------------------------------|
G|----------------------------------------|-------------------------------------|----------------------------------------|
D|-5----4----2----4--5----5-----4---5-----|-4-----------------------------------|-5----4----2----4--5----5-----4---5-----|
A|-5----4----2----4--5----5-----4---5-----|-4-----4----4----4----4----4----4----|-5----4----2----4--5----5-----4---5-----|
E|-3----2----0----2--3----3-----2---3-----|-2-----2----2----2----2----2----2----|-3----2----0----2--3----3-----2---3-----|

E|-------------------------------------|----------------------------------------|-------------------------------------|
B|-------------------------------------|----------------------------------------|-------------------------------------|
G|-------------------------------------|----------------------------------------|-------------------------------------|
D|-4-----------------------------------|-5----4----2----4--5----5-----5---7-----|-4-----------------------------------|
A|-4-----4----4----4----4----4----4----|-5----4----2----4--5----5-----5---7-----|-4-----4----4----4----4----4----4----|
E|-2-----2----2----2----2----2----2----|-3----2----0----2--3----3-----3---5-----|-2-----2----2----2----2----2----2----|

E|-------------------------------------------------------------|-------------------------------------------------------------|
B|-------------------------------------------------------------|-------------------------------------------------------------|
G|-0----5----7-------------------------------------------------|-0----5----7-------------------------------------------------|
D|----------------0----5----7----------------------------------|----------------0----5----7----------------------------------|
A|-------------------------------0----5----7----0----2----3----|-------------------------------0----5----7----0----2----3----|
E|-------------------------------------------------------------|-------------------------------------------------------------|

E|---------------------------------|---------------------------------|-----------------|
B|---------------------------------|---------------------------------|-----------------|
G|-5----5----4-----5----5----4-----|-----------%---------------------|-----------------|
D|-5----5----4-----5----5----4-----|-----------%---------------------|-----------------|
A|-3----3----2-----3----3----2-----|------4--------------4-----4-----|------4----5-----|
E|---------------------------------|-0----2---------0----2-----2-----|-0----2----3-----|

E|-------------------------------------|-----------------|---------------------------------|
B|-------------------------------------|-----------------|---------------------------------|
G|-----------%-------------------------|-----------------|-----------%---------------------|
D|-----------%-------------------------|-----------------|-----------%---------------------|
A|------4--------------4-----4---------|-----------5-----|------4--------------4-----4-----|
E|-0----2---------0----2-----2----0----|-0----0----3-----|-0----2---------0----2-----2-----|

E|-----------------|---------------------------------|---------------------------------|
B|-----------------|---------------------------------|---------------------------------|
G|-----------------|-----------%---------------------|-5----5----4-----5----5----4-----|
D|-----------------|-----------%---------------------|-5----5----4-----5----5----4-----|
A|------4----5-----|------4--------------4-----4-----|-3----3----2-----3----3----2-----|
E|-0----2----3-----|-0----2---------0----2-----2-----|---------------------------------|

E|---------------------------------|-----------------|-------------------------------------|
B|---------------------------------|-----------------|-------------------------------------|
G|-----------%---------------------|-----------------|-----------%-------------------------|
D|-----------%---------------------|-----------------|-----------%-------------------------|
A|------4--------------4-----4-----|------4----5-----|------4--------------4-----4---------|
E|-0----2---------0----2-----2-----|-0----2----3-----|-0----2---------0----2-----2----0----|

E|-----------------|---------------------------------|-----------------|---------------------------------|
B|-----------------|---------------------------------|-----------------|---------------------------------|
G|-----------------|-----------%---------------------|-----------------|-----------%---------------------|
D|-----------------|-----------%---------------------|-----------------|-----------%---------------------|
A|-----------5-----|------4--------------4-----4-----|------4----5-----|------4--------------4-----4-----|
E|-0----0----3-----|-0----2---------0----2-----2-----|-0----2----3-----|-0----2---------0----2-----2-----|

E|---------------------------------|-----------------------------------------|-----------------------------------------|
B|---------------------------------|-----------------------------------------|-----------------------------------------|
G|-5----5----4-----5----5----4-----|-----------------------------------------|-----------------------------------------|
D|-5----5----4-----5----5----4-----|-----------------------------------------|-----------------------------------------|
A|-3----3----2-----3----3----2-----|-7----7----7----7----7----5----5----3----|-7----7----7----7----7----5----5----3----|
E|---------------------------------|-----------------------------------------|-----------------------------------------|

E|-----------------------------------------|-----------------------------------------|
B|-----------------------------------------|-----------------------------------------|
G|-----------------------------------------|-----------------------------------------|
D|-----------------------------------------|-----------------------------------------|
A|-7----5----5---------7----3----3---------|-7----3----3-----------------------------|
E|----------------0-------------------1----|----------------1----X----X----X----3----|

E|-------------|-----------------------------------------------------------------------|
B|-------------|-----------------------------------------------------------------------|
G|------%------|-------------------------------------------------------------3---------|
D|------%------|------2---------2---------2----3----2---------2---------2---------2----|
A|-------------|-----------------------------------------------------------------------|
E|-X-----------|-0---------0---------0-------------------0---------0-------------------|

E|--------------------------------------------------------------------------|-----------------------------------------------------------------------|
B|--------------------------------------------------------------------------|-----------------------------------------------------------------------|
G|--------------------------------------------------------------------------|-------------------------------------------------------------3---------|
D|------2---------2---------2----3---------3--------------------------------|------2---------2---------2----3----2---------2---------2---------2----|
A|------------------------------------0----1--------------0----2------------|-----------------------------------------------------------------------|
E|-0---------0---------0------------------------2----3-------------1---1----|-0---------0---------0-------------------0---------0-------------------|

E|--------------------------------------------------------------------------|-----------------------------------------------------------------------|
B|--------------------------------------------------------------------------|-----------------------------------------------------------------------|
G|--------------------------------------------------------------------------|-------------------------------------------------------------3---------|
D|------2---------2---------2----3---------3--------------------------------|------2---------2---------2----3----2---------2---------2---------2----|
A|------------------------------------0----1--------------0----2------------|-----------------------------------------------------------------------|
E|-0---------0---------0------------------------2----3-------------1---1----|-0---------0---------0-------------------0---------0-------------------|

E|--------------------------------------------------------------------------|-----------------------------------------------------------------------|
B|--------------------------------------------------------------------------|-----------------------------------------------------------------------|
G|--------------------------------------------------------------------------|-------------------------------------------------------------3---------|
D|------2---------2---------2----3---------3--------------------------------|------2---------2---------2----3----2---------2---------2---------2----|
A|------------------------------------0----1--------------0----2------------|-----------------------------------------------------------------------|
E|-0---------0---------0------------------------2----3-------------1---1----|-0---------0---------0-------------------0---------0-------------------|

E|--------------------------------------------------------------------------|-------------------------------------------------------------|
B|--------------------------------------------------------------------------|-------------------------------------------------------------|
G|--------------------------------------------------------------------------|-------------------------------------------------------------|
D|------2---------2---------2----3---------3--------------------------------|-------------------------------------------------------------|
A|------------------------------------0----1--------------0----2------------|-------------------------------------------------------------|
E|-0---------0---------0------------------------2----3-------------1---1----|-0----0----0----0----0----0----6----0----0----7----6----3----|

E|-------------------------------------------------------------|-------------------------------------------------------------|
B|-------------------------------------------------------------|-------------------------------------------------------------|
G|-------------------------------------------------------------|-------------------------------------------------------------|
D|-------------------------------------------------------------|-------------------------------------------------------------|
A|-------------------------------------------------------------|-------------------------------------------------------------|
E|-0----0----0----0----0----0----6----0----0----7----6----3----|-0----0----0----0----0----0----6----0----0----7----6----3----|

E|-------------------------------------------------------------|-------------------------------------------------------------|
B|-------------------------------------------------------------|-------------------------------------------------------------|
G|-------------------------------------------------------------|-------------------------------------------------------------|
D|-------------------------------------------------------------|-------------------------------------------------------------|
A|-------------------------------------------------------------|-------------------------------------------------------------|
E|-0----0----0----0----0----0----6----0----0----7----6----3----|-0----0----0----0----0----0----6----0----0----7----6----3----|

E|-------------------------------------------------------------|-------------------------------------------------------------|
B|-------------------------------------------------------------|-------------------------------------------------------------|
G|-------------------------------------------------------------|-------------------------------------------------------------|
D|-------------------------------------------------------------|-------------------------------------------------------------|
A|-------------------------------------------------------------|-------------------------------------------------------------|
E|-0----0----0----0----0----0----6----0----0----7----6----3----|-0----0----0----0----0----0----6----0----0----7----6----3----|

E|-------------------------------------------------------------|-----------------------------------------------------------------------|
B|-------------------------------------------------------------|-----------------------------------------------------------------------|
G|-------------------------------------------------------------|-------------------------------------------------------------3---------|
D|-------------------------------------------------------------|------2---------2---------2----3----2---------2---------2---------2----|
A|-------------------------------------------------------------|-----------------------------------------------------------------------|
E|-0----0----0----0----0----0----6----0----0----7----6----3----|-0---------0---------0-------------------0---------0-------------------|

E|--------------------------------------------------------------------------|-----------------------------------------------------------------------|
B|--------------------------------------------------------------------------|-----------------------------------------------------------------------|
G|--------------------------------------------------------------------------|-------------------------------------------------------------3---------|
D|------2---------2---------2----3---------3--------------------------------|------2---------2---------2----3----2---------2---------2---------2----|
A|------------------------------------0----1--------------0----2------------|-----------------------------------------------------------------------|
E|-0---------0---------0------------------------2----3-------------1---1----|-0---------0---------0-------------------0---------0-------------------|

E|---------------------------------------|-----------------------------------------|
B|---------------------------------------|-----------------------------------------|
G|---------------------------------------|-----------------------------------------|
D|---------------------------------------|-7-----7----7----5-----5----5------------|
A|---------------------2-------2----2----|-5-----5----5----3-----3----3----4-------|
E|-0----0----0----0----0-------0----0----|---------------------------------2-------|

E|---------------------------------------------------------|-------------------------------------------|
B|---------------------------------------------------------|-------------------------------------------|
G|--------------%------------------%-----------------------|-------------------------------------------|
D|--------------%------------------%-----------------------|-7-----7----7----5-----5-----5-------------|
A|-5---5---5----------4---4---4----------2-------2----2----|-5-----5----5----3-----3-----3-----4-------|
E|-3---3---3----------2---2---2----------0-------0----0----|-----------------------------------2-------|

E|-----------------------------|-------------------|-----------------------------------------|
B|-----------------------------|-------------------|-----------------------------------------|
G|-----------------------------|-------------------|-----------------------------------------|
D|-5----5---5---5---------4----|-------------------|-7-----7----7----5-----5----5------------|
A|-3----3---3---3---------2----|-2-------2----2----|-5-----5----5----3-----3----3----4-------|
E|-------------------0---------|-0-------0----0----|---------------------------------2-------|

E|---------------------------------------------------------|-------------------------------------------|
B|---------------------------------------------------------|-------------------------------------------|
G|--------------%------------------%-----------------------|-------------------------------------------|
D|--------------%------------------%-----------------------|-7-----7----7----5-----5-----5-------------|
A|-5---5---5----------4---4---4----------2-------2----2----|-5-----5----5----3-----3-----3-----4-------|
E|-3---3---3----------2---2---2----------0-------0----0----|-----------------------------------2-------|

E|----------------------------------|----------------------------------------|-----------------|
B|----------------------------------|----------------------------------------|-----------------|
G|----------------------------------|-%--------------------------------------|-%---------------|
D|-5----5---5---5---------4----4----|-%-----5----5---5---5---------4----4----|-%-----4----4----|
A|-3----3---3---3---------2----2----|-------3----3---3---3---------2----2----|-------2----2----|
E|-------------------0--------------|-------------------------0--------------|-----------------|

E|-----------------------------------------------------------------------|---------|
B|-----------------------------------------------------------------------|---------|
G|-------------------------------------------------------------3---------|-%-------|
D|------2---------2---------2----3----2---------2---------2---------2----|-%-------|
A|-----------------------------------------------------------------------|---------|
E|-0---------0---------0-------------------0---------0-------------------|---------|

E|----------------|---------------------------------------------------------|
B|----------------|---------------------------------------------------------|
G|----------------|---------------------%------------------------%----------|
D|-2-------2------|---------------------%------------------------%----4-----|
A|-2-------2------|-2----2----2----2---------2----2----2----2---------4-----|
E|-0-------0------|-0----0----0----0---------0----0----0----0---------2-----|
Metallica - ...And Justice For All (2)
Metallica - ...And Justice For All (2).gp3